  0
SECTION
  2
HEADER
  9
$ACADVER
  1
AC1009
  9
$INSBASE
 10
0.0
 20
0.0
 30
0.0
  9
$EXTMIN
 10
-180.09429404290131
 20
-271.68557005312488
 30
-0.0015258207003583
  9
$EXTMAX
 10
180.04974744754139
 20
263.54811651401701
 30
0.0000000349246037
  9
$LIMMIN
 10
0.0
 20
0.0
  9
$LIMMAX
 10
0.0
 20
0.0
  9
$ORTHOMODE
 70
     0
  9
$REGENMODE
 70
     1
  9
$FILLMODE
 70
     1
  9
$QTEXTMODE
 70
     0
  9
$MIRRTEXT
 70
     1
  9
$DRAGMODE
 70
     2
  9
$LTSCALE
 40
10.16
  9
$OSMODE
 70
   231
  9
$ATTMODE
 70
     1
  9
$TEXTSIZE
 40
0.0
  9
$TRACEWID
 40
1.0
  9
$TEXTSTYLE
  7
STANDARD
  9
$CLAYER
  8
DATA
  9
$CELTYPE
  6
BYLAYER
  9
$CECOLOR
 62
   256
  9
$DIMSCALE
 40
1.0
  9
$DIMASZ
 40
0.18
  9
$DIMEXO
 40
0.0625
  9
$DIMDLI
 40
0.38
  9
$DIMRND
 40
0.0
  9
$DIMDLE
 40
0.0
  9
$DIMEXE
 40
0.18
  9
$DIMTP
 40
0.0
  9
$DIMTM
 40
0.0
  9
$DIMTXT
 40
0.18
  9
$DIMCEN
 40
0.09
  9
$DIMTSZ
 40
0.0
  9
$DIMTOL
 70
     0
  9
$DIMLIM
 70
     0
  9
$DIMTIH
 70
     1
  9
$DIMTOH
 70
     1
  9
$DIMSE1
 70
     0
  9
$DIMSE2
 70
     0
  9
$DIMTAD
 70
     0
  9
$DIMZIN
 70
     0
  9
$DIMBLK
  1

  9
$DIMASO
 70
     1
  9
$DIMSHO
 70
     1
  9
$DIMPOST
  1

  9
$DIMAPOST
  1

  9
$DIMALT
 70
     0
  9
$DIMALTD
 70
     2
  9
$DIMALTF
 40
25.399999999999999
  9
$DIMLFAC
 40
1.0
  9
$DIMTOFL
 70
     0
  9
$DIMTVP
 40
0.0
  9
$DIMTIX
 70
     0
  9
$DIMSOXD
 70
     0
  9
$DIMSAH
 70
     0
  9
$DIMBLK1
  1

  9
$DIMBLK2
  1

  9
$DIMSTYLE
  2
STANDARD
  9
$DIMCLRD
 70
     0
  9
$DIMCLRE
 70
     0
  9
$DIMCLRT
 70
     0
  9
$DIMTFAC
 40
1.0
  9
$DIMGAP
 40
0.09
  9
$LUNITS
 70
     2
  9
$LUPREC
 70
     4
  9
$SKETCHINC
 40
0.1
  9
$FILLETRAD
 40
0.0
  9
$AUNITS
 70
     0
  9
$AUPREC
 70
     0
  9
$MENU
  1
acad
  9
$ELEVATION
 40
0.0
  9
$PELEVATION
 40
0.0
  9
$THICKNESS
 40
0.0
  9
$LIMCHECK
 70
     0
  9
$BLIPMODE
 70
     0
  9
$CHAMFERA
 40
0.0
  9
$CHAMFERB
 40
0.0
  9
$SKPOLY
 70
     0
  9
$TDCREATE
 40
2456136.7081018519
  9
$TDUPDATE
 40
2456136.7146934611
  9
$TDINDWG
 40
0.0003287616
  9
$TDUSRTIMER
 40
0.0003285764
  9
$USRTIMER
 70
     1
  9
$ANGBASE
 50
0.0
  9
$ANGDIR
 70
     0
  9
$PDMODE
 70
     1
  9
$PDSIZE
 40
-2.0
  9
$PLINEWID
 40
0.0
  9
$COORDS
 70
     2
  9
$SPLFRAME
 70
     0
  9
$SPLINETYPE
 70
     6
  9
$SPLINESEGS
 70
     8
  9
$ATTDIA
 70
     0
  9
$ATTREQ
 70
     1
  9
$HANDLING
 70
     1
  9
$HANDSEED
  5
35B
  9
$SURFTAB1
 70
     6
  9
$SURFTAB2
 70
     6
  9
$SURFTYPE
 70
     6
  9
$SURFU
 70
     6
  9
$SURFV
 70
     6
  9
$UCSNAME
  2

  9
$UCSORG
 10
0.0
 20
0.0
 30
0.0
  9
$UCSXDIR
 10
1.0
 20
0.0
 30
0.0
  9
$UCSYDIR
 10
0.0
 20
1.0
 30
0.0
  9
$PUCSNAME
  2

  9
$PUCSORG
 10
0.0
 20
0.0
 30
0.0
  9
$PUCSXDIR
 10
1.0
 20
0.0
 30
0.0
  9
$PUCSYDIR
 10
0.0
 20
1.0
 30
0.0
  9
$USERI1
 70
     0
  9
$USERI2
 70
     0
  9
$USERI3
 70
     0
  9
$USERI4
 70
     0
  9
$USERI5
 70
     0
  9
$USERR1
 40
0.0
  9
$USERR2
 40
0.0
  9
$USERR3
 40
0.0
  9
$USERR4
 40
0.0
  9
$USERR5
 40
0.0
  9
$WORLDVIEW
 70
     1
  9
$SHADEDGE
 70
     3
  9
$SHADEDIF
 70
    70
  9
$TILEMODE
 70
     1
  9
$MAXACTVP
 70
    64
  9
$PLIMCHECK
 70
     0
  9
$PEXTMIN
 10
1.0000000000000000E+020
 20
1.0000000000000000E+020
 30
1.0000000000000000E+020
  9
$PEXTMAX
 10
-1.0000000000000000E+020
 20
-1.0000000000000000E+020
 30
-1.0000000000000000E+020
  9
$PLIMMIN
 10
0.0
 20
0.0
  9
$PLIMMAX
 10
12.0
 20
9.0
  9
$UNITMODE
 70
     0
  9
$VISRETAIN
 70
     0
  9
$PLINEGEN
 70
     1
  9
$PSLTSCALE
 70
     0
  0
ENDSEC
  0
SECTION
  2
TABLES
  0
TABLE
  2
VPORT
 70
     1
  0
VPORT
  2
*ACTIVE
 70
     0
 10
0.0
 20
0.0
 11
1.0
 21
1.0
 12
-0.0222732976799307
 22
-3.5318137563878049
 13
0.0
 23
0.0
 14
1.0
 24
1.0
 15
0.0
 25
0.0
 16
0.0
 26
0.0
 36
1.0
 17
0.0
 27
0.0
 37
0.0
 40
538.37137061077658
 41
2.1881578947368419
 42
50.0
 43
0.0
 44
0.0
 50
0.0
 51
0.0
 71
     0
 72
  2000
 73
     1
 74
     1
 75
     0
 76
     0
 77
     0
 78
     0
  0
ENDTAB
  0
TABLE
  2
LTYPE
 70
    12
  0
LTYPE
  2
CONTINUOUS
 70
     0
  3
Solid line
 72
    65
 73
     0
 40
0.0
  0
LTYPE
  2
PHANTOM2
 70
     0
  3
___ _ _ ___ _ _ ___ _ _ ___ _ _
 72
    65
 73
     6
 40
1.25
 49
0.625
 49
-0.125
 49
0.125
 49
-0.125
 49
0.125
 49
-0.125
  0
ENDTAB
  0
TABLE
  2
LAYER
 70
     5
  0
LAYER
  2
0
 70
     0
 62
     7
  6
CONTINUOUS
  0
LAYER
  2
DATA
 70
     0
 62
     7
  6
CONTINUOUS
  0
LAYER
  2
HIBINO-BASE
 70
     0
 62
     7
  6
CONTINUOUS
  0
LAYER
  2
SPEC
 70
     0
 62
     7
  6
CONTINUOUS
  0
LAYER
  2
DIMNSIONS
 70
     0
 62
     7
  6
CONTINUOUS
  0
ENDTAB
  0
TABLE
  2
STYLE
 70
     3
  0
STYLE
  2
STANDARD
 70
     0
 40
0.0
 41
1.0
 50
0.0
 71
     0
 42
0.0
  3
txt
  4
BIGFONT.SHX
  0
ENDTAB
  0
TABLE
  2
VIEW
 70
     0
  0
ENDTAB
  0
TABLE
  2
UCS
 70
     0
  0
ENDTAB
  0
TABLE
  2
APPID
 70
     4
  0
APPID
  2
ACAD
 70
     0
  0
APPID
  2
ACADANNOTATIVE
 70
     0
  0
APPID
  2
ACAD_NAV_VCDISPLAY
 70
     0
  0
APPID
  2
ACAD_MLEADERVER
 70
     0
  0
ENDTAB
  0
TABLE
  2
DIMSTYLE
 70
     2
  0
DIMSTYLE
  2
STANDARD
 70
     0
  3

  4

  5

  6

  7

 40
1.0
 41
0.18
 42
0.0625
 43
0.38
 44
0.18
 45
0.0
 46
0.0
 47
0.0
 48
0.0
140
0.18
141
0.09
142
0.0
143
25.399999999999999
144
1.0
145
0.0
146
1.0
147
0.09
 71
     0
 72
     0
 73
     1
 74
     1
 75
     0
 76
     0
 77
     0
 78
     0
170
     0
171
     2
172
     0
173
     0
174
     0
175
     0
176
     0
177
     0
178
     0
  0
ENDTAB
  0
ENDSEC
  0
SECTION
  2
BLOCKS
  0
BLOCK
  8
0
  2
$MODEL_SPACE
 70
     0
 10
0.0
 20
0.0
 30
0.0
  3
$MODEL_SPACE
  1

  0
ENDBLK
  5
2DA
  8
0
  0
BLOCK
 67
     1
  8
0
  2
$PAPER_SPACE
 70
     0
 10
0.0
 20
0.0
 30
0.0
  3
$PAPER_SPACE
  1

  0
ENDBLK
  5
2D6
 67
     1
  8
0
  0
ENDSEC
  0
SECTION
  2
ENTITIES
  0
LINE
  5
2C
  8
HIBINO-BASE
  6
CONTINUOUS
 62
     7
 10
-180.0
 20
263.53181499999999
 30
0.0
 11
180.0
 21
263.53181499999999
 31
0.0
  0
LINE
  5
2D
  8
HIBINO-BASE
  6
CONTINUOUS
 62
     7
 10
180.0
 20
-256.46818500000001
 30
0.0
 11
-180.0
 21
-256.46818500000001
 31
0.0
  0
LINE
  5
2E
  8
HIBINO-BASE
  6
CONTINUOUS
 62
     7
 10
-180.0
 20
-256.46818500000001
 30
0.0
 11
-180.0
 21
263.53181499999999
 31
0.0
  0
TEXT
  5
2F
  8
HIBINO-BASE
 62
     7
 10
-165.63199999999989
 20
-269.28554059999988
 30
0.0
 40
7.2000883593749991
  1
Hibino Corporation
 41
0.7
 11
-165.63199999999989
 21
-262.08545224062487
 31
0.0
 73
     3
  0
LINE
  5
30
  8
HIBINO-BASE
  6
CONTINUOUS
 62
     7
 10
180.0
 20
263.53181499999999
 30
0.0
 11
180.0
 21
-256.46818500000001
 31
0.0
  0
LINE
  5
31
  8
HIBINO-BASE
  6
CONTINUOUS
 62
     7
 10
0.0
 20
-211.46818500000001
 30
0.0
 11
180.0
 21
-211.46818500000001
 31
0.0
  0
LINE
  5
32
  8
HIBINO-BASE
  6
CONTINUOUS
 62
     7
 10
0.0
 20
-256.46818500000001
 30
0.0
 11
0.0
 21
-211.46818500000001
 31
0.0
  0
TEXT
  5
33
  8
HIBINO-BASE
 62
     7
 10
1.7999999999999989
 20
-216.48557166666669
 30
0.0
 40
3.2576822916666659
  1
NOTE
 41
0.7
 11
1.7999999999999989
 21
-213.22788937499999
 31
0.0
 73
     3
  0
LINE
  5
34
  8
HIBINO-BASE
  6
CONTINUOUS
 62
     7
 10
70.0
 20
-256.46818500000001
 30
0.0
 11
70.0
 21
-211.46818500000001
 31
0.0
  0
TEXT
  5
35
  8
HIBINO-BASE
 62
     7
 10
71.799999999999983
 20
-216.48557166666669
 30
0.0
 40
3.2576822916666659
  1
TITLE
 41
0.7
 11
71.799999999999983
 21
-213.22788937499999
 31
0.0
 73
     3
  0
TEXT
  5
36
  8
HIBINO-BASE
 62
     7
 10
100.13678
 20
-269.28554059999988
 30
0.0
 40
7.2000883593749991
  1
ヒビノ株式会社
 41
0.7
 11
100.13678
 21
-262.08545224062487
 31
0.0
 73
     3
  0
LINE
  5
37
  8
HIBINO-BASE
  6
CONTINUOUS
 62
     7
 10
0.0
 20
-236.46818500000001
 30
0.0
 11
180.0
 21
-236.46818500000001
 31
0.0
  0
TEXT
  5
38
  8
HIBINO-BASE
 62
     7
 10
96.799999999999983
 20
-241.37293166666669
 30
0.0
 40
3.2576822916666659
  1
DRAWN
 41
0.7
 11
96.799999999999983
 21
-238.11524937499999
 31
0.0
 73
     3
  0
TEXT
  5
39
  8
HIBINO-BASE
 62
     7
 10
46.79999999999999
 20
-241.37293166666669
 30
0.0
 40
3.2576822916666659
  1
DATE
 41
0.7
 11
46.79999999999999
 21
-238.11524937499999
 31
0.0
 73
     3
  0
TEXT
  5
3A
  8
HIBINO-BASE
 62
     7
 10
26.800000000000001
 20
-241.37293166666669
 30
0.0
 40
3.2576822916666659
  1
SCALE
 41
0.7
 11
26.800000000000001
 21
-238.11524937499999
 31
0.0
 73
     3
  0
TEXT
  5
3B
  8
HIBINO-BASE
 62
     7
 10
71.799999999999983
 20
-241.37293166666669
 30
0.0
 40
3.2576822916666659
  1
DESIGN
 41
0.7
 11
71.799999999999983
 21
-238.11524937499999
 31
0.0
 73
     3
  0
TEXT
  5
3C
  8
HIBINO-BASE
 62
     7
 10
146.7999999999999
 20
-241.37293166666669
 30
0.0
 40
3.2576822916666659
  1
DRAWING NO.
 41
0.7
 11
146.7999999999999
 21
-238.11524937499999
 31
0.0
 73
     3
  0
TEXT
  5
3D
  8
HIBINO-BASE
 62
     7
 10
121.7999999999999
 20
-241.37293166666669
 30
0.0
 40
3.2576822916666659
  1
CHECK
 41
0.7
 11
121.7999999999999
 21
-238.11524937499999
 31
0.0
 73
     3
  0
LINE
  5
3E
  8
HIBINO-BASE
  6
CONTINUOUS
 62
     7
 10
28.75
 20
-253.96818500000001
 30
0.0
 11
36.25
 21
-246.46818500000001
 31
0.0
  0
TEXT
  5
3F
  8
HIBINO-BASE
 62
     7
 10
27.5
 20
-248.68607166666661
 30
0.0
 40
3.2576822916666659
  1
1
 41
0.7
 11
27.5
 21
-245.42838937499999
 31
0.0
 73
     3
  0
LINE
  5
40
  8
HIBINO-BASE
  6
CONTINUOUS
 62
     7
 10
25.0
 20
-256.46818500000001
 30
0.0
 11
25.0
 21
-236.46818500000001
 31
0.0
  0
LINE
  5
41
  8
HIBINO-BASE
  6
CONTINUOUS
 62
     7
 10
44.999999999999993
 20
-256.46818500000001
 30
0.0
 11
44.999999999999993
 21
-236.46818500000001
 31
0.0
  0
LINE
  5
42
  8
HIBINO-BASE
  6
CONTINUOUS
 62
     7
 10
94.999999999999986
 20
-236.46818500000001
 30
0.0
 11
94.999999999999986
 21
-256.46818500000001
 31
0.0
  0
LINE
  5
43
  8
HIBINO-BASE
  6
CONTINUOUS
 62
     7
 10
145.0
 20
-236.46818500000001
 30
0.0
 11
145.0
 21
-256.46818500000001
 31
0.0
  0
LINE
  5
44
  8
HIBINO-BASE
  6
CONTINUOUS
 62
     7
 10
120.0
 20
-256.46818500000001
 30
0.0
 11
120.0
 21
-236.46818500000001
 31
0.0
  0
TEXT
  5
45
  8
HIBINO-BASE
 62
     7
 10
46.713079999999991
 20
-250.7408916666667
 30
0.0
 40
3.2576822916666659
  1
'12.07.
 41
0.7
 11
46.713079999999991
 21
-247.483209375
 31
0.0
 73
     3
  0
TEXT
  5
46
  8
HIBINO-BASE
 62
     7
 10
35.0
 20
-252.43607166666669
 30
0.0
 40
3.2576822916666659
  1
2
 41
0.7
 11
35.0
 21
-249.17838937499999
 31
0.0
 73
     3
  0
TEXT
  5
47
  8
HIBINO-BASE
 62
     7
 10
98.011620022069224
 20
-250.7408916666667
 30
0.0
 40
3.2576822916666659
  1
Ootake
 41
0.7
 11
98.011620022069224
 21
-247.483209375
 31
0.0
 73
     3
  0
TEXT
  5
48
  8
HIBINO-BASE
 62
     7
 10
7.7666666666666968
 20
-252.51618500000001
 30
0.0
 40
6.5153645833333318
  1
A4
 41
0.7
 11
7.7666666666666968
 21
-246.00082041666661
 31
0.0
 73
     3
  0
TEXT
  5
49
  8
HIBINO-BASE
 62
     7
 10
1.9166666666666641
 20
-241.7070949999999
 30
0.0
 40
3.2576822916666659
  1
PAPER SIZE
 41
0.7
 11
1.9166666666666641
 21
-238.44941270833331
 31
0.0
 73
     3
  0
LINE
  5
4A
  8
SPEC
  6
CONTINUOUS
 62
     7
 10
-164.99999999999989
 20
243.53181499999999
 30
0.0
 11
130.0
 21
243.53181499999999
 31
0.0
  0
LINE
  5
4B
  8
SPEC
  6
CONTINUOUS
 62
     7
 10
-164.99999999999989
 20
236.03181499999999
 30
0.0
 11
130.0
 21
236.03181499999999
 31
0.0
  0
LINE
  5
4C
  8
SPEC
  6
CONTINUOUS
 62
     7
 10
-164.99999999999989
 20
228.53181499999999
 30
0.0
 11
130.0
 21
228.53181499999999
 31
0.0
  0
LINE
  5
4D
  8
SPEC
  6
CONTINUOUS
 62
     7
 10
-164.99999999999989
 20
243.53181499999999
 30
0.0
 11
-164.99999999999989
 21
191.03181499999999
 31
0.0
  0
TEXT
  5
4E
  8
SPEC
 62
     7
 10
-162.5
 20
246.318355
 30
0.0
 40
4.8865234375000002
  1
仕様
 41
0.7
 11
-162.5
 21
251.20487843750001
 31
0.0
 73
     3
  0
LINE
  5
4F
  8
SPEC
  6
CONTINUOUS
 62
     7
 10
-100.0
 20
243.53181499999999
 30
0.0
 11
-100.0
 21
191.03181499999999
 31
0.0
  0
LINE
  5
50
  8
SPEC
  6
CONTINUOUS
 62
     7
 10
130.0
 20
243.53181499999999
 30
0.0
 11
130.0
 21
191.03181499999999
 31
0.0
  0
TEXT
  5
51
  8
SPEC
 62
     7
 10
-163.9817643253302
 20
237.9549417050693
 30
0.0
 40
3.8006224999999989
  1
ローカットフィルター
 41
0.7
 11
-163.9817643253302
 21
241.75556420506931
 31
0.0
 73
     3
  0
TEXT
  5
52
  8
SPEC
 62
     7
 10
-163.4006701306763
 20
230.58671977230819
 30
0.0
 40
3.8006224999999989
  1
インピーダンス
 41
0.7
 11
-163.4006701306763
 21
234.38734227230819
 31
0.0
 73
     3
  0
TEXT
  5
53
  8
SPEC
 62
     7
 10
-98.233281727216365
 20
237.68922988247709
 30
0.0
 40
3.8006224999999989
  1
200Hz(6dB/oct)＊ジャンパーで設定
 41
0.7
 11
-98.233281727216365
 21
241.4898523824771
 31
0.0
 73
     3
  0
TEXT
  5
54
  8
SPEC
 62
     7
 10
-98.233268715880541
 20
230.35481435216559
 30
0.0
 40
3.8006224999999989
  1
600\U+03A9以下
 41
0.7
 11
-98.233268715880541
 21
234.15543685216559
 31
0.0
 73
     3
  0
LINE
  5
55
  8
SPEC
  6
CONTINUOUS
 62
     7
 10
-164.99999999999989
 20
221.03181499999999
 30
0.0
 11
130.0
 21
221.03181499999999
 31
0.0
  0
LINE
  5
56
  8
SPEC
  6
CONTINUOUS
 62
     7
 10
-164.99999999999989
 20
213.53181499999999
 30
0.0
 11
130.0
 21
213.53181499999999
 31
0.0
  0
LINE
  5
57
  8
SPEC
  6
CONTINUOUS
 62
     7
 10
-164.99999999999989
 20
206.03181499999999
 30
0.0
 11
130.0
 21
206.03181499999999
 31
0.0
  0
LINE
  5
58
  8
SPEC
  6
CONTINUOUS
 62
     7
 10
-164.99999999999989
 20
198.53181499999999
 30
0.0
 11
130.0
 21
198.53181499999999
 31
0.0
  0
LINE
  5
59
  8
SPEC
  6
CONTINUOUS
 62
     7
 10
-164.99999999999989
 20
191.03181499999999
 30
0.0
 11
130.0
 21
191.03181499999999
 31
0.0
  0
TEXT
  5
5A
  8
SPEC
 62
     7
 10
-163.2823646325437
 20
193.20605858460669
 30
0.0
 40
3.8006224999999989
  1
付属品
 41
0.7
 11
-163.2823646325437
 21
197.0066810846067
 31
0.0
 73
     3
  0
TEXT
  5
5B
  8
SPEC
 62
     7
 10
-98.098095490027163
 20
193.12382660191881
 30
0.0
 40
3.8006224999999989
  1
XLRコネクタ ー用埋込パーツ(PS 3 F-LOCK)
 41
0.7
 11
-98.098095490027163
 21
196.92444910191881
 31
0.0
 73
     3
  0
TEXT
  5
5C
  8
SPEC
 62
     7
 10
-163.3786993378051
 20
223.16087119824849
 30
0.0
 40
3.8006224999999989
  1
電源
 41
0.7
 11
-163.3786993378051
 21
226.96149369824849
 31
0.0
 73
     3
  0
TEXT
  5
5D
  8
SPEC
 62
     7
 10
-98.834807801092182
 20
222.97978175882221
 30
0.0
 40
3.8006224999999989
  1
ファンタムDC9～52V/3mA以下
 41
0.7
 11
-98.834807801092182
 21
226.7804042588223
 31
0.0
 73
     3
  0
TEXT
  5
5E
  8
SPEC
 62
     7
 10
-163.776991607208
 20
215.66087119824849
 30
0.0
 40
3.8006224999999989
  1
コネクター
 41
0.7
 11
-163.776991607208
 21
219.46149369824849
 31
0.0
 73
     3
  0
TEXT
  5
5F
  8
SPEC
 62
     7
 10
-98.072023949591156
 20
215.41594781492589
 30
0.0
 40
3.8006224999999989
  1
XLR3ピン
 41
0.7
 11
-98.072023949591156
 21
219.21657031492589
 31
0.0
 73
     3
  0
TEXT
  5
60
  8
SPEC
 62
     7
 10
-163.4006701306763
 20
207.98262191520439
 30
0.0
 40
3.8006224999999989
  1
寸法
 41
0.7
 11
-163.4006701306763
 21
211.78324441520439
 31
0.0
 73
     3
  0
TEXT
  5
61
  8
SPEC
 62
     7
 10
-163.3534044692957
 20
200.5939264778946
 30
0.0
 40
3.8006224999999989
  1
重量
 41
0.7
 11
-163.3534044692957
 21
204.39454897789469
 31
0.0
 73
     3
  0
TEXT
  5
62
  8
SPEC
 62
     7
 10
-98.465965660458068
 20
207.85521841382729
 30
0.0
 40
3.8006224999999989
  1
19\U+03A6\U+00D7233mm(突起部含まず)
 41
0.7
 11
-98.465965660458068
 21
211.65584091382729
 31
0.0
 73
     3
  0
TEXT
  5
63
  8
SPEC
 62
     7
 10
-98.279694369943726
 20
200.5748880479083
 30
0.0
 40
3.8006224999999989
  1
約130g
 41
0.7
 11
-98.279694369943726
 21
204.37551054790819
 31
0.0
 73
     3
  0
POINT
  5
64
  8
SPEC
  6
CONTINUOUS
 62
     7
 10
-1450.0
 20
155.0
 30
0.0
  0
TEXT
  5
65
  8
DIMNSIONS
 62
     7
 10
-40.0
 20
-231.929205
 30
0.0
 40
4.8865234375000002
  1
(単位：mm)
 41
0.7
 11
-40.0
 21
-227.04268156250001
 31
0.0
 73
     3
  0
LINE
  5
66
  8
DIMNSIONS
  6
CONTINUOUS
 62
     7
 10
-54.0
 20
-130.0
 30
0.0
 11
-94.0
 21
-130.0
 31
0.0
  0
LINE
  5
67
  8
DIMNSIONS
  6
CONTINUOUS
 62
     7
 10
-54.0
 20
103.0
 30
0.0
 11
-94.0
 21
103.0
 31
0.0
  0
LINE
  5
68
  8
DIMNSIONS
  6
CONTINUOUS
 62
     7
 10
-90.0
 20
-130.0
 30
0.0
 11
-90.0
 21
103.0
 31
0.0
  0
LINE
  5
69
  8
DIMNSIONS
  6
CONTINUOUS
 62
     7
 10
-90.0
 20
-130.0
 30
0.0
 11
-91.340079590300476
 21
-124.99875488281251
 31
0.0
  0
LINE
  5
6A
  8
DIMNSIONS
  6
CONTINUOUS
 62
     7
 10
-90.0
 20
-130.0
 30
0.0
 11
-88.659920409699509
 21
-124.99875488281251
 31
0.0
  0
LINE
  5
6B
  8
DIMNSIONS
  6
CONTINUOUS
 62
     7
 10
-90.0
 20
103.0
 30
0.0
 11
-88.659920409699509
 21
97.998754882812506
 31
0.0
  0
LINE
  5
6C
  8
DIMNSIONS
  6
CONTINUOUS
 62
     7
 10
-90.0
 20
103.0
 30
0.0
 11
-91.340079590300476
 21
97.998754882812506
 31
0.0
  0
TEXT
  5
6D
  8
DIMNSIONS
 62
     7
 10
-91.987777777777765
 20
-18.791666666666671
 30
0.0
 40
5.4294704861111107
  1
233
 50
90.0
 41
0.7
 11
-97.417248263888894
 21
-18.791666666666671
 31
0.0
 73
     3
  0
LINE
  5
6E
  8
DIMNSIONS
  6
CONTINUOUS
 62
     7
 10
-49.49712585445009
 20
-163.049873171
 30
0.0
 11
-70.0
 21
-170.0
 31
0.0
  0
LINE
  5
6F
  8
DIMNSIONS
  6
CONTINUOUS
 62
     7
 10
-49.49712585445009
 20
-163.049873171
 30
0.0
 11
-53.789608774836417
 21
-165.9451894592012
 31
0.0
  0
LINE
  5
70
  8
DIMNSIONS
  6
CONTINUOUS
 62
     7
 10
-49.49712585445009
 20
-163.049873171
 30
0.0
 11
-54.662183252916101
 21
-163.41104916838
 31
0.0
  0
LINE
  5
71
  8
DIMNSIONS
  6
CONTINUOUS
 62
     7
 10
-70.0
 20
-170.0
 30
0.0
 11
-88.111111111111086
 21
-170.0
 31
0.0
  0
TEXT
  5
72
  8
DIMNSIONS
 62
     7
 10
-88.111111111111086
 20
-168.01222222222219
 30
0.0
 40
5.4294704861111107
  1
\U+03C619
 41
0.7
 11
-88.111111111111086
 21
-162.58275173611111
 31
0.0
 73
     3
  0
LINE
  5
73
  8
DIMNSIONS
  6
CONTINUOUS
 62
     7
 10
-47.117610871383889
 20
122.2819347832358
 30
0.0
 11
-55.0
 21
125.0
 31
0.0
  0
LINE
  5
74
  8
DIMNSIONS
  6
CONTINUOUS
 62
     7
 10
-47.117610871383889
 20
122.2819347832358
 30
0.0
 11
-52.27557821628892
 21
122.73319845275191
 31
0.0
  0
LINE
  5
75
  8
DIMNSIONS
  6
CONTINUOUS
 62
     7
 10
-47.117610871383889
 20
122.2819347832358
 30
0.0
 11
-51.358909789204162
 21
125.2517242572942
 31
0.0
  0
LINE
  5
76
  8
DIMNSIONS
  6
CONTINUOUS
 62
     7
 10
-55.0
 20
125.0
 30
0.0
 11
-73.1111111111111
 21
125.0
 31
0.0
  0
TEXT
  5
77
  8
DIMNSIONS
 62
     7
 10
-73.1111111111111
 20
126.98777777777769
 30
0.0
 40
5.4294704861111107
  1
\U+03C614
 41
0.7
 11
-73.1111111111111
 21
132.41724826388881
 31
0.0
 73
     3
  0
TEXT
  5
78
  8
DATA
 62
     7
 10
100.0
 20
-234.20640499999999
 30
0.0
 40
4.8865234375000002
  1
GN 15 E
 41
0.7
 11
100.0
 21
-229.3198815625
 31
0.0
 73
     3
  0
TEXT
  5
79
  8
DATA
 62
     7
 10
100.0
 20
-219.70640499999999
 30
0.0
 40
4.8865234375000002
  1
AKG
 41
0.7
 11
100.0
 21
-214.8198815625
 31
0.0
 73
     3
  0
TEXT
  5
7A
  8
DATA
 62
     7
 10
94.999999999999986
 20
-226.6603174
 30
0.0
 40
3.257687421875
  1
Modular Series用グースネック
 41
0.7
 11
94.999999999999986
 21
-223.40262997812499
 31
0.0
 73
     3
  0
TEXT
  5
7B
  8
DATA
 62
     7
 10
-159.99999999999989
 20
-247.99218500000001
 30
0.0
 40
3.2576822916666659
  1
仕様および外観は予告なく変更されることがありますので、ご了承ください。
 41
0.7
 11
-159.99999999999989
 21
-244.73450270833331
 31
0.0
 73
     3
  0
LINE
  5
7C
  8
DATA
  6
CONTINUOUS
 62
     7
 10
-50.0
 20
-130.0
 30
0.0
 11
-50.0
 21
-68.833666932835882
 31
0.0
  0
LINE
  5
7D
  8
DATA
  6
CONTINUOUS
 62
     7
 10
-31.0
 20
-130.0
 30
0.0
 11
-50.0
 21
-130.0
 31
0.0
  0
LINE
  5
7E
  8
DATA
  6
CONTINUOUS
 62
     7
 10
-47.5
 20
103.0
 30
0.0
 11
-33.5
 21
103.0
 31
0.0
  0
CIRCLE
  5
7F
  8
DATA
  6
CONTINUOUS
 62
     7
 10
-40.499999999999993
 20
-160.0
 30
0.0
 40
9.5
  0
ARC
  5
80
  8
DATA
  6
CONTINUOUS
 62
     7
 10
-40.500000000000888
 20
-160.00000000000131
 30
0.0
 40
8.0000000000016183
 50
65.640235005786664
 51
48.689305883291212
  0
LINE
  5
81
  8
DATA
  6
CONTINUOUS
 62
     7
 10
-47.0
 20
93.730000000000004
 30
0.0
 11
-47.5
 21
103.0
 31
0.0
  0
LINE
  5
82
  8
DATA
  6
CONTINUOUS
 62
     7
 10
-34.0
 20
93.730000000000004
 30
0.0
 11
-33.5
 21
103.0
 31
0.0
  0
LINE
  5
83
  8
DATA
  6
CONTINUOUS
 62
     7
 10
-46.600000000000009
 20
90.930000000000007
 30
0.0
 11
-34.400000000000013
 21
90.930000000000007
 31
0.0
  0
LINE
  5
84
  8
DATA
  6
CONTINUOUS
 62
     7
 10
-45.256416914134078
 20
64.641691413409859
 30
0.0
 11
-35.743583085865922
 21
64.641691413409859
 31
0.0
  0
LINE
  5
85
  8
DATA
  6
CONTINUOUS
 62
     7
 10
-46.600000000000001
 20
90.930000000000007
 30
0.0
 11
-47.0
 21
93.730000000000004
 31
0.0
  0
LINE
  5
86
  8
DATA
  6
CONTINUOUS
 62
     7
 10
-34.399999999999991
 20
90.930000000000007
 30
0.0
 11
-34.0
 21
93.730000000000004
 31
0.0
  0
LINE
  5
87
  8
DATA
  6
CONTINUOUS
 62
     7
 10
-45.256416914134093
 20
64.641691413409859
 30
0.0
 11
-45.350000000000009
 21
74.0
 31
0.0
  0
LINE
  5
88
  8
DATA
  6
CONTINUOUS
 62
     7
 10
-35.743583085865907
 20
64.641691413409859
 30
0.0
 11
-35.650000000000013
 21
74.0
 31
0.0
  0
LINE
  5
89
  8
DATA
  6
CONTINUOUS
 62
     7
 10
-45.350000000000009
 20
74.0
 30
0.0
 11
-45.450000000000003
 21
78.0
 31
0.0
  0
LINE
  5
8A
  8
DATA
  6
CONTINUOUS
 62
     7
 10
-35.650000000000013
 20
74.0
 30
0.0
 11
-35.549999999999997
 21
78.0
 31
0.0
  0
LINE
  5
8B
  8
DATA
  6
CONTINUOUS
 62
     7
 10
-45.450000000000003
 20
78.0
 30
0.0
 11
-46.600000000000001
 21
90.930000000000007
 31
0.0
  0
LINE
  5
8C
  8
DATA
  6
CONTINUOUS
 62
     7
 10
-35.549999999999997
 20
78.0
 30
0.0
 11
-34.399999999999991
 21
90.930000000000007
 31
0.0
  0
LINE
  5
8D
  8
DATA
  6
CONTINUOUS
 62
     7
 10
-46.914285714285739
 20
93.129999999999995
 30
0.0
 11
-34.085714285714261
 21
93.129999999999995
 31
0.0
  0
ARC
  5
8E
  8
DATA
  6
CONTINUOUS
 62
     7
 10
262.42967625899632
 20
-89.578848920863805
 30
0.0
 40
313.3949942509866
 50
169.60756357651911
 51
174.671651491348
  0
ARC
  5
8F
  8
DATA
  6
CONTINUOUS
 62
     7
 10
-80.250000000000654
 20
-26.732118710180409
 30
0.0
 40
35.000000000000647
 50
349.60756357651923
 51
0.0
  0
ARC
  5
90
  8
DATA
  6
CONTINUOUS
 62
     7
 10
40.000000000001279
 20
-68.833666932835882
 30
0.0
 40
90.000000000001265
 50
175.3846076817866
 51
180.0
  0
LINE
  5
91
  8
DATA
  6
CONTINUOUS
 62
     7
 10
-49.708156758466792
 20
-61.591663687990618
 30
0.0
 11
-49.611098630162182
 21
-60.47597572680624
 31
0.0
  0
LINE
  5
92
  8
DATA
  6
CONTINUOUS
 62
     7
 10
-31.0
 20
-130.0
 30
0.0
 11
-31.0
 21
-68.833666932835882
 31
0.0
  0
ARC
  5
93
  8
DATA
  6
CONTINUOUS
 62
     7
 10
-343.42967625899632
 20
-89.578848920863805
 30
0.0
 40
313.3949942509866
 50
5.3283485086520637
 51
10.39243642348095
  0
ARC
  5
94
  8
DATA
  6
CONTINUOUS
 62
     7
 10
-0.7499999999993463
 20
-26.732118710180409
 30
0.0
 40
35.000000000000647
 50
180.0
 51
190.39243642348069
  0
ARC
  5
95
  8
DATA
  6
CONTINUOUS
 62
     7
 10
-121.00000000000129
 20
-68.833666932835882
 30
0.0
 40
90.000000000001265
 50
0.0
 51
4.6153923182133667
  0
LINE
  5
96
  8
DATA
  6
CONTINUOUS
 62
     7
 10
-31.291843241533211
 20
-61.591663687990618
 30
0.0
 11
-31.388901369837811
 21
-60.47597572680624
 31
0.0
  0
POLYLINE
  5
97
  8
DATA
  6
CONTINUOUS
 62
     7
 66
     1
 10
0.0
 20
0.0
 30
0.0
 70
     1
  0
VERTEX
  5
30A
  8
DATA
  6
CONTINUOUS
 62
     7
 10
-45.25
 20
58.800000000000011
 30
0.0
  0
VERTEX
  5
30B
  8
DATA
  6
CONTINUOUS
 62
     7
 10
-35.75
 20
58.800000000000011
 30
0.0
  0
VERTEX
  5
30C
  8
DATA
  6
CONTINUOUS
 62
     7
 10
-35.75
 20
55.000000000000021
 30
0.0
  0
VERTEX
  5
30D
  8
DATA
  6
CONTINUOUS
 62
     7
 10
-45.25
 20
55.000000000000021
 30
0.0
  0
SEQEND
  5
30E
  8
DATA
  6
CONTINUOUS
 62
     7
  0
POLYLINE
  5
9E
  8
DATA
  6
CONTINUOUS
 62
     7
 66
     1
 10
0.0
 20
0.0
 30
0.0
 70
     1
  0
VERTEX
  5
30F
  8
DATA
  6
CONTINUOUS
 62
     7
 10
-45.25
 20
63.700000000000003
 30
0.0
  0
VERTEX
  5
310
  8
DATA
  6
CONTINUOUS
 62
     7
 10
-35.75
 20
63.700000000000003
 30
0.0
  0
VERTEX
  5
311
  8
DATA
  6
CONTINUOUS
 62
     7
 10
-35.75
 20
59.900000000000013
 30
0.0
  0
VERTEX
  5
312
  8
DATA
  6
CONTINUOUS
 62
     7
 10
-45.25
 20
59.900000000000013
 30
0.0
  0
SEQEND
  5
313
  8
DATA
  6
CONTINUOUS
 62
     7
  0
LINE
  5
A5
  8
DATA
  6
CONTINUOUS
 62
     7
 10
-44.450000000000003
 20
58.800000000000011
 30
0.0
 11
-44.450000000000003
 21
59.900000000000013
 31
0.0
  0
LINE
  5
A6
  8
DATA
  6
CONTINUOUS
 62
     7
 10
-36.549999999999997
 20
58.800000000000011
 30
0.0
 11
-36.549999999999997
 21
59.900000000000013
 31
0.0
  0
LINE
  5
A7
  8
DATA
  6
CONTINUOUS
 62
     7
 10
-44.450000000000003
 20
63.70000000000001
 30
0.0
 11
-44.450000000000003
 21
64.641691413409859
 31
0.0
  0
LINE
  5
A8
  8
DATA
  6
CONTINUOUS
 62
     7
 10
-36.549999999999997
 20
63.70000000000001
 30
0.0
 11
-36.549999999999997
 21
64.641691413409859
 31
0.0
  0
LINE
  5
A9
  8
DATA
  6
CONTINUOUS
 62
     7
 10
-36.549999999999997
 20
55.000000000000021
 30
0.0
 11
-44.450000000000003
 21
54.338219895287963
 31
0.0
  0
LINE
  5
AA
  8
DATA
  6
CONTINUOUS
 62
     7
 10
-36.549999999999997
 20
53.500000000000021
 30
0.0
 11
-44.450000000000003
 21
52.838219895287963
 31
0.0
  0
LINE
  5
AB
  8
DATA
  6
CONTINUOUS
 62
     7
 10
-44.450000000000003
 20
52.838219895287963
 30
0.0
 11
-44.450000000000003
 21
54.338219895287963
 31
0.0
  0
LINE
  5
AC
  8
DATA
  6
CONTINUOUS
 62
     7
 10
-36.549999999999997
 20
53.500000000000021
 30
0.0
 11
-36.549999999999997
 21
55.000000000000021
 31
0.0
  0
LINE
  5
AD
  8
DATA
  6
CONTINUOUS
 62
     7
 10
-36.549999999999997
 20
53.000000000000021
 30
0.0
 11
-44.450000000000003
 21
52.338219895287963
 31
0.0
  0
LINE
  5
AE
  8
DATA
  6
CONTINUOUS
 62
     7
 10
-36.549999999999997
 20
51.500000000000021
 30
0.0
 11
-44.450000000000003
 21
50.83821989528797
 31
0.0
  0
LINE
  5
AF
  8
DATA
  6
CONTINUOUS
 62
     7
 10
-44.450000000000003
 20
50.83821989528797
 30
0.0
 11
-44.450000000000003
 21
52.338219895287963
 31
0.0
  0
LINE
  5
B0
  8
DATA
  6
CONTINUOUS
 62
     7
 10
-36.549999999999997
 20
51.500000000000021
 30
0.0
 11
-36.549999999999997
 21
53.000000000000021
 31
0.0
  0
LINE
  5
B1
  8
DATA
  6
CONTINUOUS
 62
     7
 10
-44.200000000000003
 20
52.359162303664931
 30
0.0
 11
-44.200000000000003
 21
52.859162303664931
 31
0.0
  0
LINE
  5
B2
  8
DATA
  6
CONTINUOUS
 62
     7
 10
-44.200000000000003
 20
54.359162303664931
 30
0.0
 11
-44.200000000000003
 21
55.000000000000021
 31
0.0
  0
LINE
  5
B3
  8
DATA
  6
CONTINUOUS
 62
     7
 10
-36.799999999999997
 20
52.97905759162304
 30
0.0
 11
-36.799999999999997
 21
53.479057591623047
 31
0.0
  0
LINE
  5
B4
  8
DATA
  6
CONTINUOUS
 62
     7
 10
-36.549999999999997
 20
51.000000000000021
 30
0.0
 11
-44.450000000000003
 21
50.338219895287963
 31
0.0
  0
LINE
  5
B5
  8
DATA
  6
CONTINUOUS
 62
     7
 10
-36.549999999999997
 20
49.500000000000021
 30
0.0
 11
-44.450000000000003
 21
48.838219895287963
 31
0.0
  0
LINE
  5
B6
  8
DATA
  6
CONTINUOUS
 62
     7
 10
-44.450000000000003
 20
48.838219895287963
 30
0.0
 11
-44.450000000000003
 21
50.338219895287963
 31
0.0
  0
LINE
  5
B7
  8
DATA
  6
CONTINUOUS
 62
     7
 10
-36.549999999999997
 20
49.500000000000021
 30
0.0
 11
-36.549999999999997
 21
51.000000000000021
 31
0.0
  0
LINE
  5
B8
  8
DATA
  6
CONTINUOUS
 62
     7
 10
-44.200000000000003
 20
50.359162303664931
 30
0.0
 11
-44.200000000000003
 21
50.859162303664931
 31
0.0
  0
LINE
  5
B9
  8
DATA
  6
CONTINUOUS
 62
     7
 10
-36.549999999999997
 20
49.000000000000021
 30
0.0
 11
-44.450000000000003
 21
48.33821989528797
 31
0.0
  0
LINE
  5
BA
  8
DATA
  6
CONTINUOUS
 62
     7
 10
-36.549999999999997
 20
47.500000000000021
 30
0.0
 11
-44.450000000000003
 21
46.838219895287963
 31
0.0
  0
LINE
  5
BB
  8
DATA
  6
CONTINUOUS
 62
     7
 10
-44.450000000000003
 20
46.838219895287963
 30
0.0
 11
-44.450000000000003
 21
48.33821989528797
 31
0.0
  0
LINE
  5
BC
  8
DATA
  6
CONTINUOUS
 62
     7
 10
-36.549999999999997
 20
47.500000000000021
 30
0.0
 11
-36.549999999999997
 21
49.000000000000021
 31
0.0
  0
LINE
  5
BD
  8
DATA
  6
CONTINUOUS
 62
     7
 10
-44.200000000000003
 20
48.359162303664931
 30
0.0
 11
-44.200000000000003
 21
48.859162303664931
 31
0.0
  0
LINE
  5
BE
  8
DATA
  6
CONTINUOUS
 62
     7
 10
-36.549999999999997
 20
47.000000000000007
 30
0.0
 11
-44.450000000000003
 21
46.338219895287963
 31
0.0
  0
LINE
  5
BF
  8
DATA
  6
CONTINUOUS
 62
     7
 10
-36.549999999999997
 20
45.500000000000021
 30
0.0
 11
-44.450000000000003
 21
44.838219895287963
 31
0.0
  0
LINE
  5
C0
  8
DATA
  6
CONTINUOUS
 62
     7
 10
-44.450000000000003
 20
44.838219895287963
 30
0.0
 11
-44.450000000000003
 21
46.338219895287963
 31
0.0
  0
LINE
  5
C1
  8
DATA
  6
CONTINUOUS
 62
     7
 10
-36.549999999999997
 20
45.500000000000021
 30
0.0
 11
-36.549999999999997
 21
47.000000000000007
 31
0.0
  0
LINE
  5
C2
  8
DATA
  6
CONTINUOUS
 62
     7
 10
-44.200000000000003
 20
46.359162303664917
 30
0.0
 11
-44.200000000000003
 21
46.859162303664931
 31
0.0
  0
LINE
  5
C3
  8
DATA
  6
CONTINUOUS
 62
     7
 10
-36.549999999999997
 20
45.000000000000021
 30
0.0
 11
-44.450000000000003
 21
44.338219895287963
 31
0.0
  0
LINE
  5
C4
  8
DATA
  6
CONTINUOUS
 62
     7
 10
-36.549999999999997
 20
43.500000000000021
 30
0.0
 11
-44.450000000000003
 21
42.838219895287963
 31
0.0
  0
LINE
  5
C5
  8
DATA
  6
CONTINUOUS
 62
     7
 10
-44.450000000000003
 20
42.838219895287963
 30
0.0
 11
-44.450000000000003
 21
44.338219895287963
 31
0.0
  0
LINE
  5
C6
  8
DATA
  6
CONTINUOUS
 62
     7
 10
-36.549999999999997
 20
43.500000000000021
 30
0.0
 11
-36.549999999999997
 21
45.000000000000021
 31
0.0
  0
LINE
  5
C7
  8
DATA
  6
CONTINUOUS
 62
     7
 10
-44.200000000000003
 20
44.359162303664931
 30
0.0
 11
-44.200000000000003
 21
44.859162303664931
 31
0.0
  0
LINE
  5
C8
  8
DATA
  6
CONTINUOUS
 62
     7
 10
-36.549999999999997
 20
43.000000000000021
 30
0.0
 11
-44.450000000000003
 21
42.338219895287963
 31
0.0
  0
LINE
  5
C9
  8
DATA
  6
CONTINUOUS
 62
     7
 10
-36.549999999999997
 20
41.500000000000007
 30
0.0
 11
-44.450000000000003
 21
40.838219895287963
 31
0.0
  0
LINE
  5
CA
  8
DATA
  6
CONTINUOUS
 62
     7
 10
-44.450000000000003
 20
40.838219895287963
 30
0.0
 11
-44.450000000000003
 21
42.338219895287963
 31
0.0
  0
LINE
  5
CB
  8
DATA
  6
CONTINUOUS
 62
     7
 10
-36.549999999999997
 20
41.500000000000007
 30
0.0
 11
-36.549999999999997
 21
43.000000000000021
 31
0.0
  0
LINE
  5
CC
  8
DATA
  6
CONTINUOUS
 62
     7
 10
-44.200000000000003
 20
42.359162303664931
 30
0.0
 11
-44.200000000000003
 21
42.859162303664931
 31
0.0
  0
LINE
  5
CD
  8
DATA
  6
CONTINUOUS
 62
     7
 10
-36.549999999999997
 20
41.000000000000007
 30
0.0
 11
-44.450000000000003
 21
40.338219895287963
 31
0.0
  0
LINE
  5
CE
  8
DATA
  6
CONTINUOUS
 62
     7
 10
-36.549999999999997
 20
39.500000000000007
 30
0.0
 11
-44.450000000000003
 21
38.838219895287963
 31
0.0
  0
LINE
  5
CF
  8
DATA
  6
CONTINUOUS
 62
     7
 10
-44.450000000000003
 20
38.838219895287963
 30
0.0
 11
-44.450000000000003
 21
40.338219895287963
 31
0.0
  0
LINE
  5
D0
  8
DATA
  6
CONTINUOUS
 62
     7
 10
-36.549999999999997
 20
39.500000000000007
 30
0.0
 11
-36.549999999999997
 21
41.000000000000007
 31
0.0
  0
LINE
  5
D1
  8
DATA
  6
CONTINUOUS
 62
     7
 10
-44.200000000000003
 20
40.359162303664931
 30
0.0
 11
-44.200000000000003
 21
40.859162303664931
 31
0.0
  0
LINE
  5
D2
  8
DATA
  6
CONTINUOUS
 62
     7
 10
-36.549999999999997
 20
39.000000000000021
 30
0.0
 11
-44.450000000000003
 21
38.33821989528797
 31
0.0
  0
LINE
  5
D3
  8
DATA
  6
CONTINUOUS
 62
     7
 10
-36.549999999999997
 20
37.500000000000021
 30
0.0
 11
-44.450000000000003
 21
36.83821989528797
 31
0.0
  0
LINE
  5
D4
  8
DATA
  6
CONTINUOUS
 62
     7
 10
-44.450000000000003
 20
36.83821989528797
 30
0.0
 11
-44.450000000000003
 21
38.33821989528797
 31
0.0
  0
LINE
  5
D5
  8
DATA
  6
CONTINUOUS
 62
     7
 10
-36.549999999999997
 20
37.500000000000021
 30
0.0
 11
-36.549999999999997
 21
39.000000000000021
 31
0.0
  0
LINE
  5
D6
  8
DATA
  6
CONTINUOUS
 62
     7
 10
-44.200000000000003
 20
38.359162303664931
 30
0.0
 11
-44.200000000000003
 21
38.859162303664931
 31
0.0
  0
LINE
  5
D7
  8
DATA
  6
CONTINUOUS
 62
     7
 10
-36.549999999999997
 20
37.000000000000007
 30
0.0
 11
-44.450000000000003
 21
36.338219895287963
 31
0.0
  0
LINE
  5
D8
  8
DATA
  6
CONTINUOUS
 62
     7
 10
-36.549999999999997
 20
35.500000000000007
 30
0.0
 11
-44.450000000000003
 21
34.838219895287963
 31
0.0
  0
LINE
  5
D9
  8
DATA
  6
CONTINUOUS
 62
     7
 10
-44.450000000000003
 20
34.838219895287963
 30
0.0
 11
-44.450000000000003
 21
36.338219895287963
 31
0.0
  0
LINE
  5
DA
  8
DATA
  6
CONTINUOUS
 62
     7
 10
-36.549999999999997
 20
35.500000000000007
 30
0.0
 11
-36.549999999999997
 21
37.000000000000007
 31
0.0
  0
LINE
  5
DB
  8
DATA
  6
CONTINUOUS
 62
     7
 10
-44.200000000000003
 20
36.359162303664931
 30
0.0
 11
-44.200000000000003
 21
36.859162303664931
 31
0.0
  0
LINE
  5
DC
  8
DATA
  6
CONTINUOUS
 62
     7
 10
-36.549999999999997
 20
35.000000000000007
 30
0.0
 11
-44.450000000000003
 21
34.33821989528797
 31
0.0
  0
LINE
  5
DD
  8
DATA
  6
CONTINUOUS
 62
     7
 10
-36.549999999999997
 20
33.500000000000007
 30
0.0
 11
-44.450000000000003
 21
32.838219895287963
 31
0.0
  0
LINE
  5
DE
  8
DATA
  6
CONTINUOUS
 62
     7
 10
-44.450000000000003
 20
32.838219895287963
 30
0.0
 11
-44.450000000000003
 21
34.33821989528797
 31
0.0
  0
LINE
  5
DF
  8
DATA
  6
CONTINUOUS
 62
     7
 10
-36.549999999999997
 20
33.500000000000007
 30
0.0
 11
-36.549999999999997
 21
35.000000000000007
 31
0.0
  0
LINE
  5
E0
  8
DATA
  6
CONTINUOUS
 62
     7
 10
-44.200000000000003
 20
34.359162303664931
 30
0.0
 11
-44.200000000000003
 21
34.859162303664931
 31
0.0
  0
LINE
  5
E1
  8
DATA
  6
CONTINUOUS
 62
     7
 10
-36.549999999999997
 20
33.000000000000007
 30
0.0
 11
-44.450000000000003
 21
32.338219895287963
 31
0.0
  0
LINE
  5
E2
  8
DATA
  6
CONTINUOUS
 62
     7
 10
-36.549999999999997
 20
31.500000000000011
 30
0.0
 11
-44.450000000000003
 21
30.83821989528797
 31
0.0
  0
LINE
  5
E3
  8
DATA
  6
CONTINUOUS
 62
     7
 10
-44.450000000000003
 20
30.83821989528797
 30
0.0
 11
-44.450000000000003
 21
32.338219895287963
 31
0.0
  0
LINE
  5
E4
  8
DATA
  6
CONTINUOUS
 62
     7
 10
-36.549999999999997
 20
31.500000000000011
 30
0.0
 11
-36.549999999999997
 21
33.000000000000007
 31
0.0
  0
LINE
  5
E5
  8
DATA
  6
CONTINUOUS
 62
     7
 10
-44.200000000000003
 20
32.359162303664931
 30
0.0
 11
-44.200000000000003
 21
32.859162303664931
 31
0.0
  0
LINE
  5
E6
  8
DATA
  6
CONTINUOUS
 62
     7
 10
-36.549999999999997
 20
31.000000000000011
 30
0.0
 11
-44.450000000000003
 21
30.33821989528797
 31
0.0
  0
LINE
  5
E7
  8
DATA
  6
CONTINUOUS
 62
     7
 10
-36.549999999999997
 20
29.500000000000011
 30
0.0
 11
-44.450000000000003
 21
28.83821989528797
 31
0.0
  0
LINE
  5
E8
  8
DATA
  6
CONTINUOUS
 62
     7
 10
-44.450000000000003
 20
28.83821989528797
 30
0.0
 11
-44.450000000000003
 21
30.33821989528797
 31
0.0
  0
LINE
  5
E9
  8
DATA
  6
CONTINUOUS
 62
     7
 10
-36.549999999999997
 20
29.500000000000011
 30
0.0
 11
-36.549999999999997
 21
31.000000000000011
 31
0.0
  0
LINE
  5
EA
  8
DATA
  6
CONTINUOUS
 62
     7
 10
-44.200000000000003
 20
30.359162303664931
 30
0.0
 11
-44.200000000000003
 21
30.859162303664931
 31
0.0
  0
LINE
  5
EB
  8
DATA
  6
CONTINUOUS
 62
     7
 10
-36.549999999999997
 20
29.000000000000011
 30
0.0
 11
-44.450000000000003
 21
28.33821989528797
 31
0.0
  0
LINE
  5
EC
  8
DATA
  6
CONTINUOUS
 62
     7
 10
-36.549999999999997
 20
27.500000000000011
 30
0.0
 11
-44.450000000000003
 21
26.83821989528797
 31
0.0
  0
LINE
  5
ED
  8
DATA
  6
CONTINUOUS
 62
     7
 10
-44.450000000000003
 20
26.83821989528797
 30
0.0
 11
-44.450000000000003
 21
28.33821989528797
 31
0.0
  0
LINE
  5
EE
  8
DATA
  6
CONTINUOUS
 62
     7
 10
-36.549999999999997
 20
27.500000000000011
 30
0.0
 11
-36.549999999999997
 21
29.000000000000011
 31
0.0
  0
LINE
  5
EF
  8
DATA
  6
CONTINUOUS
 62
     7
 10
-44.200000000000003
 20
28.359162303664931
 30
0.0
 11
-44.200000000000003
 21
28.859162303664931
 31
0.0
  0
LINE
  5
F0
  8
DATA
  6
CONTINUOUS
 62
     7
 10
-36.549999999999997
 20
27.000000000000011
 30
0.0
 11
-44.450000000000003
 21
26.33821989528797
 31
0.0
  0
LINE
  5
F1
  8
DATA
  6
CONTINUOUS
 62
     7
 10
-36.549999999999997
 20
25.500000000000011
 30
0.0
 11
-44.450000000000003
 21
24.83821989528797
 31
0.0
  0
LINE
  5
F2
  8
DATA
  6
CONTINUOUS
 62
     7
 10
-44.450000000000003
 20
24.83821989528797
 30
0.0
 11
-44.450000000000003
 21
26.33821989528797
 31
0.0
  0
LINE
  5
F3
  8
DATA
  6
CONTINUOUS
 62
     7
 10
-36.549999999999997
 20
25.500000000000011
 30
0.0
 11
-36.549999999999997
 21
27.000000000000011
 31
0.0
  0
LINE
  5
F4
  8
DATA
  6
CONTINUOUS
 62
     7
 10
-44.200000000000003
 20
26.359162303664931
 30
0.0
 11
-44.200000000000003
 21
26.859162303664931
 31
0.0
  0
LINE
  5
F5
  8
DATA
  6
CONTINUOUS
 62
     7
 10
-36.549999999999997
 20
25.000000000000011
 30
0.0
 11
-44.450000000000003
 21
24.33821989528797
 31
0.0
  0
LINE
  5
F6
  8
DATA
  6
CONTINUOUS
 62
     7
 10
-36.549999999999997
 20
23.500000000000011
 30
0.0
 11
-44.450000000000003
 21
22.83821989528797
 31
0.0
  0
LINE
  5
F7
  8
DATA
  6
CONTINUOUS
 62
     7
 10
-44.450000000000003
 20
22.83821989528797
 30
0.0
 11
-44.450000000000003
 21
24.33821989528797
 31
0.0
  0
LINE
  5
F8
  8
DATA
  6
CONTINUOUS
 62
     7
 10
-36.549999999999997
 20
23.500000000000011
 30
0.0
 11
-36.549999999999997
 21
25.000000000000011
 31
0.0
  0
LINE
  5
F9
  8
DATA
  6
CONTINUOUS
 62
     7
 10
-44.200000000000003
 20
24.359162303664931
 30
0.0
 11
-44.200000000000003
 21
24.859162303664931
 31
0.0
  0
LINE
  5
FA
  8
DATA
  6
CONTINUOUS
 62
     7
 10
-36.549999999999997
 20
23.000000000000011
 30
0.0
 11
-44.450000000000003
 21
22.33821989528797
 31
0.0
  0
LINE
  5
FB
  8
DATA
  6
CONTINUOUS
 62
     7
 10
-36.549999999999997
 20
21.500000000000011
 30
0.0
 11
-44.450000000000003
 21
20.83821989528797
 31
0.0
  0
LINE
  5
FC
  8
DATA
  6
CONTINUOUS
 62
     7
 10
-44.450000000000003
 20
20.83821989528797
 30
0.0
 11
-44.450000000000003
 21
22.33821989528797
 31
0.0
  0
LINE
  5
FD
  8
DATA
  6
CONTINUOUS
 62
     7
 10
-36.549999999999997
 20
21.500000000000011
 30
0.0
 11
-36.549999999999997
 21
23.000000000000011
 31
0.0
  0
LINE
  5
FE
  8
DATA
  6
CONTINUOUS
 62
     7
 10
-44.200000000000003
 20
22.359162303664931
 30
0.0
 11
-44.200000000000003
 21
22.859162303664931
 31
0.0
  0
LINE
  5
FF
  8
DATA
  6
CONTINUOUS
 62
     7
 10
-36.549999999999997
 20
21.000000000000011
 30
0.0
 11
-44.450000000000003
 21
20.33821989528796
 31
0.0
  0
LINE
  5
100
  8
DATA
  6
CONTINUOUS
 62
     7
 10
-36.549999999999997
 20
19.500000000000011
 30
0.0
 11
-44.450000000000003
 21
18.83821989528796
 31
0.0
  0
LINE
  5
101
  8
DATA
  6
CONTINUOUS
 62
     7
 10
-44.450000000000003
 20
18.83821989528796
 30
0.0
 11
-44.450000000000003
 21
20.33821989528796
 31
0.0
  0
LINE
  5
102
  8
DATA
  6
CONTINUOUS
 62
     7
 10
-36.549999999999997
 20
19.500000000000011
 30
0.0
 11
-36.549999999999997
 21
21.000000000000011
 31
0.0
  0
LINE
  5
103
  8
DATA
  6
CONTINUOUS
 62
     7
 10
-44.200000000000003
 20
20.35916230366492
 30
0.0
 11
-44.200000000000003
 21
20.859162303664931
 31
0.0
  0
LINE
  5
104
  8
DATA
  6
CONTINUOUS
 62
     7
 10
-36.549999999999997
 20
19.000000000000011
 30
0.0
 11
-44.450000000000003
 21
18.33821989528796
 31
0.0
  0
LINE
  5
105
  8
DATA
  6
CONTINUOUS
 62
     7
 10
-36.549999999999997
 20
17.500000000000011
 30
0.0
 11
-44.450000000000003
 21
16.83821989528796
 31
0.0
  0
LINE
  5
106
  8
DATA
  6
CONTINUOUS
 62
     7
 10
-44.450000000000003
 20
16.83821989528796
 30
0.0
 11
-44.450000000000003
 21
18.33821989528796
 31
0.0
  0
LINE
  5
107
  8
DATA
  6
CONTINUOUS
 62
     7
 10
-36.549999999999997
 20
17.500000000000011
 30
0.0
 11
-36.549999999999997
 21
19.000000000000011
 31
0.0
  0
LINE
  5
108
  8
DATA
  6
CONTINUOUS
 62
     7
 10
-44.200000000000003
 20
18.35916230366492
 30
0.0
 11
-44.200000000000003
 21
18.85916230366492
 31
0.0
  0
LINE
  5
109
  8
DATA
  6
CONTINUOUS
 62
     7
 10
-36.549999999999997
 20
17.000000000000021
 30
0.0
 11
-44.450000000000003
 21
16.33821989528796
 31
0.0
  0
LINE
  5
10A
  8
DATA
  6
CONTINUOUS
 62
     7
 10
-36.549999999999997
 20
15.500000000000011
 30
0.0
 11
-44.450000000000003
 21
14.83821989528796
 31
0.0
  0
LINE
  5
10B
  8
DATA
  6
CONTINUOUS
 62
     7
 10
-44.450000000000003
 20
14.83821989528796
 30
0.0
 11
-44.450000000000003
 21
16.33821989528796
 31
0.0
  0
LINE
  5
10C
  8
DATA
  6
CONTINUOUS
 62
     7
 10
-36.549999999999997
 20
15.500000000000011
 30
0.0
 11
-36.549999999999997
 21
17.000000000000021
 31
0.0
  0
LINE
  5
10D
  8
DATA
  6
CONTINUOUS
 62
     7
 10
-44.200000000000003
 20
16.359162303664931
 30
0.0
 11
-44.200000000000003
 21
16.859162303664931
 31
0.0
  0
LINE
  5
10E
  8
DATA
  6
CONTINUOUS
 62
     7
 10
-36.549999999999997
 20
15.000000000000011
 30
0.0
 11
-44.450000000000003
 21
14.33821989528796
 31
0.0
  0
LINE
  5
10F
  8
DATA
  6
CONTINUOUS
 62
     7
 10
-36.549999999999997
 20
13.500000000000011
 30
0.0
 11
-44.450000000000003
 21
12.83821989528796
 31
0.0
  0
LINE
  5
110
  8
DATA
  6
CONTINUOUS
 62
     7
 10
-44.450000000000003
 20
12.83821989528796
 30
0.0
 11
-44.450000000000003
 21
14.33821989528796
 31
0.0
  0
LINE
  5
111
  8
DATA
  6
CONTINUOUS
 62
     7
 10
-36.549999999999997
 20
13.500000000000011
 30
0.0
 11
-36.549999999999997
 21
15.000000000000011
 31
0.0
  0
LINE
  5
112
  8
DATA
  6
CONTINUOUS
 62
     7
 10
-44.200000000000003
 20
14.359162303664929
 30
0.0
 11
-44.200000000000003
 21
14.859162303664929
 31
0.0
  0
LINE
  5
113
  8
DATA
  6
CONTINUOUS
 62
     7
 10
-36.549999999999997
 20
13.000000000000011
 30
0.0
 11
-44.450000000000003
 21
12.33821989528796
 31
0.0
  0
LINE
  5
114
  8
DATA
  6
CONTINUOUS
 62
     7
 10
-36.549999999999997
 20
11.500000000000011
 30
0.0
 11
-44.450000000000003
 21
10.83821989528796
 31
0.0
  0
LINE
  5
115
  8
DATA
  6
CONTINUOUS
 62
     7
 10
-44.450000000000003
 20
10.83821989528796
 30
0.0
 11
-44.450000000000003
 21
12.33821989528796
 31
0.0
  0
LINE
  5
116
  8
DATA
  6
CONTINUOUS
 62
     7
 10
-36.549999999999997
 20
11.500000000000011
 30
0.0
 11
-36.549999999999997
 21
13.000000000000011
 31
0.0
  0
LINE
  5
117
  8
DATA
  6
CONTINUOUS
 62
     7
 10
-44.200000000000003
 20
12.35916230366492
 30
0.0
 11
-44.200000000000003
 21
12.85916230366492
 31
0.0
  0
LINE
  5
118
  8
DATA
  6
CONTINUOUS
 62
     7
 10
-36.549999999999997
 20
11.000000000000011
 30
0.0
 11
-44.450000000000003
 21
10.33821989528796
 31
0.0
  0
LINE
  5
119
  8
DATA
  6
CONTINUOUS
 62
     7
 10
-36.549999999999997
 20
9.5000000000000142
 30
0.0
 11
-44.450000000000003
 21
8.8382198952879634
 31
0.0
  0
LINE
  5
11A
  8
DATA
  6
CONTINUOUS
 62
     7
 10
-44.450000000000003
 20
8.8382198952879634
 30
0.0
 11
-44.450000000000003
 21
10.33821989528796
 31
0.0
  0
LINE
  5
11B
  8
DATA
  6
CONTINUOUS
 62
     7
 10
-36.549999999999997
 20
9.5000000000000142
 30
0.0
 11
-36.549999999999997
 21
11.000000000000011
 31
0.0
  0
LINE
  5
11C
  8
DATA
  6
CONTINUOUS
 62
     7
 10
-44.200000000000003
 20
10.35916230366492
 30
0.0
 11
-44.200000000000003
 21
10.85916230366492
 31
0.0
  0
LINE
  5
11D
  8
DATA
  6
CONTINUOUS
 62
     7
 10
-36.549999999999997
 20
9.0000000000000142
 30
0.0
 11
-44.450000000000003
 21
8.3382198952879634
 31
0.0
  0
LINE
  5
11E
  8
DATA
  6
CONTINUOUS
 62
     7
 10
-36.549999999999997
 20
7.5000000000000142
 30
0.0
 11
-44.450000000000003
 21
6.8382198952879634
 31
0.0
  0
LINE
  5
11F
  8
DATA
  6
CONTINUOUS
 62
     7
 10
-44.450000000000003
 20
6.8382198952879634
 30
0.0
 11
-44.450000000000003
 21
8.3382198952879634
 31
0.0
  0
LINE
  5
120
  8
DATA
  6
CONTINUOUS
 62
     7
 10
-36.549999999999997
 20
7.5000000000000142
 30
0.0
 11
-36.549999999999997
 21
9.0000000000000142
 31
0.0
  0
LINE
  5
121
  8
DATA
  6
CONTINUOUS
 62
     7
 10
-44.200000000000003
 20
8.3591623036649256
 30
0.0
 11
-44.200000000000003
 21
8.8591623036649256
 31
0.0
  0
LINE
  5
122
  8
DATA
  6
CONTINUOUS
 62
     7
 10
-36.549999999999997
 20
7.0000000000000142
 30
0.0
 11
-44.450000000000003
 21
6.3382198952879634
 31
0.0
  0
LINE
  5
123
  8
DATA
  6
CONTINUOUS
 62
     7
 10
-36.549999999999997
 20
5.5000000000000142
 30
0.0
 11
-44.450000000000003
 21
4.8382198952879634
 31
0.0
  0
LINE
  5
124
  8
DATA
  6
CONTINUOUS
 62
     7
 10
-44.450000000000003
 20
4.8382198952879634
 30
0.0
 11
-44.450000000000003
 21
6.3382198952879634
 31
0.0
  0
LINE
  5
125
  8
DATA
  6
CONTINUOUS
 62
     7
 10
-36.549999999999997
 20
5.5000000000000142
 30
0.0
 11
-36.549999999999997
 21
7.0000000000000142
 31
0.0
  0
LINE
  5
126
  8
DATA
  6
CONTINUOUS
 62
     7
 10
-44.200000000000003
 20
6.359162303664923
 30
0.0
 11
-44.200000000000003
 21
6.859162303664923
 31
0.0
  0
LINE
  5
127
  8
DATA
  6
CONTINUOUS
 62
     7
 10
-36.549999999999997
 20
5.0000000000000142
 30
0.0
 11
-44.450000000000003
 21
4.3382198952879634
 31
0.0
  0
LINE
  5
128
  8
DATA
  6
CONTINUOUS
 62
     7
 10
-36.549999999999997
 20
3.5000000000000142
 30
0.0
 11
-44.450000000000003
 21
2.8382198952879629
 31
0.0
  0
LINE
  5
129
  8
DATA
  6
CONTINUOUS
 62
     7
 10
-44.450000000000003
 20
2.8382198952879629
 30
0.0
 11
-44.450000000000003
 21
4.3382198952879634
 31
0.0
  0
LINE
  5
12A
  8
DATA
  6
CONTINUOUS
 62
     7
 10
-36.549999999999997
 20
3.5000000000000142
 30
0.0
 11
-36.549999999999997
 21
5.0000000000000142
 31
0.0
  0
LINE
  5
12B
  8
DATA
  6
CONTINUOUS
 62
     7
 10
-44.200000000000003
 20
4.359162303664923
 30
0.0
 11
-44.200000000000003
 21
4.859162303664923
 31
0.0
  0
LINE
  5
12C
  8
DATA
  6
CONTINUOUS
 62
     7
 10
-36.549999999999997
 20
3.0000000000000142
 30
0.0
 11
-44.450000000000003
 21
2.3382198952879629
 31
0.0
  0
LINE
  5
12D
  8
DATA
  6
CONTINUOUS
 62
     7
 10
-36.549999999999997
 20
1.500000000000014
 30
0.0
 11
-44.450000000000003
 21
0.8382198952879633
 31
0.0
  0
LINE
  5
12E
  8
DATA
  6
CONTINUOUS
 62
     7
 10
-44.450000000000003
 20
0.8382198952879633
 30
0.0
 11
-44.450000000000003
 21
2.3382198952879629
 31
0.0
  0
LINE
  5
12F
  8
DATA
  6
CONTINUOUS
 62
     7
 10
-36.549999999999997
 20
1.500000000000014
 30
0.0
 11
-36.549999999999997
 21
3.0000000000000142
 31
0.0
  0
LINE
  5
130
  8
DATA
  6
CONTINUOUS
 62
     7
 10
-44.200000000000003
 20
2.359162303664923
 30
0.0
 11
-44.200000000000003
 21
2.859162303664923
 31
0.0
  0
LINE
  5
131
  8
DATA
  6
CONTINUOUS
 62
     7
 10
-36.549999999999997
 20
1.000000000000014
 30
0.0
 11
-44.450000000000003
 21
0.3382198952879634
 31
0.0
  0
LINE
  5
132
  8
DATA
  6
CONTINUOUS
 62
     7
 10
-36.549999999999997
 20
-0.4999999999999858
 30
0.0
 11
-44.450000000000003
 21
-1.161780104712036
 31
0.0
  0
LINE
  5
133
  8
DATA
  6
CONTINUOUS
 62
     7
 10
-44.450000000000003
 20
-1.161780104712036
 30
0.0
 11
-44.450000000000003
 21
0.3382198952879634
 31
0.0
  0
LINE
  5
134
  8
DATA
  6
CONTINUOUS
 62
     7
 10
-36.549999999999997
 20
-0.4999999999999858
 30
0.0
 11
-36.549999999999997
 21
1.000000000000014
 31
0.0
  0
LINE
  5
135
  8
DATA
  6
CONTINUOUS
 62
     7
 10
-44.200000000000003
 20
0.3591623036649239
 30
0.0
 11
-44.200000000000003
 21
0.8591623036649239
 31
0.0
  0
LINE
  5
136
  8
DATA
  6
CONTINUOUS
 62
     7
 10
-36.549999999999997
 20
-0.9999999999999857
 30
0.0
 11
-44.450000000000003
 21
-1.661780104712036
 31
0.0
  0
LINE
  5
137
  8
DATA
  6
CONTINUOUS
 62
     7
 10
-36.549999999999997
 20
-2.4999999999999849
 30
0.0
 11
-42.518749999999919
 21
-2.9999999999999849
 31
0.0
  0
LINE
  5
138
  8
DATA
  6
CONTINUOUS
 62
     7
 10
-44.450000000000003
 20
-2.9999999999999849
 30
0.0
 11
-44.450000000000003
 21
-1.661780104712036
 31
0.0
  0
LINE
  5
139
  8
DATA
  6
CONTINUOUS
 62
     7
 10
-36.549999999999997
 20
-2.4999999999999849
 30
0.0
 11
-36.549999999999997
 21
-0.9999999999999857
 31
0.0
  0
LINE
  5
13A
  8
DATA
  6
CONTINUOUS
 62
     7
 10
-44.200000000000003
 20
-1.640837696335075
 30
0.0
 11
-44.200000000000003
 21
-1.140837696335075
 31
0.0
  0
LINE
  5
13B
  8
DATA
  6
CONTINUOUS
 62
     7
 10
-36.799999999999997
 20
46.979057591623047
 30
0.0
 11
-36.799999999999997
 21
47.47905759162304
 31
0.0
  0
LINE
  5
13C
  8
DATA
  6
CONTINUOUS
 62
     7
 10
-36.799999999999997
 20
44.97905759162304
 30
0.0
 11
-36.799999999999997
 21
45.47905759162304
 31
0.0
  0
LINE
  5
13D
  8
DATA
  6
CONTINUOUS
 62
     7
 10
-36.799999999999997
 20
42.97905759162304
 30
0.0
 11
-36.799999999999997
 21
43.47905759162304
 31
0.0
  0
LINE
  5
13E
  8
DATA
  6
CONTINUOUS
 62
     7
 10
-36.799999999999997
 20
40.97905759162304
 30
0.0
 11
-36.799999999999997
 21
41.479057591623047
 31
0.0
  0
LINE
  5
13F
  8
DATA
  6
CONTINUOUS
 62
     7
 10
-36.799999999999997
 20
38.979057591623047
 30
0.0
 11
-36.799999999999997
 21
39.479057591623047
 31
0.0
  0
LINE
  5
140
  8
DATA
  6
CONTINUOUS
 62
     7
 10
-36.799999999999997
 20
36.979057591623047
 30
0.0
 11
-36.799999999999997
 21
37.479057591623047
 31
0.0
  0
LINE
  5
141
  8
DATA
  6
CONTINUOUS
 62
     7
 10
-36.799999999999997
 20
34.979057591623047
 30
0.0
 11
-36.799999999999997
 21
35.479057591623047
 31
0.0
  0
LINE
  5
142
  8
DATA
  6
CONTINUOUS
 62
     7
 10
-36.799999999999997
 20
32.979057591623047
 30
0.0
 11
-36.799999999999997
 21
33.479057591623047
 31
0.0
  0
LINE
  5
143
  8
DATA
  6
CONTINUOUS
 62
     7
 10
-36.799999999999997
 20
30.97905759162305
 30
0.0
 11
-36.799999999999997
 21
31.47905759162305
 31
0.0
  0
LINE
  5
144
  8
DATA
  6
CONTINUOUS
 62
     7
 10
-36.799999999999997
 20
28.97905759162305
 30
0.0
 11
-36.799999999999997
 21
29.47905759162305
 31
0.0
  0
LINE
  5
145
  8
DATA
  6
CONTINUOUS
 62
     7
 10
-36.799999999999997
 20
26.97905759162305
 30
0.0
 11
-36.799999999999997
 21
27.47905759162305
 31
0.0
  0
LINE
  5
146
  8
DATA
  6
CONTINUOUS
 62
     7
 10
-36.799999999999997
 20
24.97905759162305
 30
0.0
 11
-36.799999999999997
 21
25.47905759162305
 31
0.0
  0
LINE
  5
147
  8
DATA
  6
CONTINUOUS
 62
     7
 10
-36.799999999999997
 20
22.97905759162305
 30
0.0
 11
-36.799999999999997
 21
23.47905759162305
 31
0.0
  0
LINE
  5
148
  8
DATA
  6
CONTINUOUS
 62
     7
 10
-36.799999999999997
 20
20.97905759162305
 30
0.0
 11
-36.799999999999997
 21
21.47905759162305
 31
0.0
  0
LINE
  5
149
  8
DATA
  6
CONTINUOUS
 62
     7
 10
-36.799999999999997
 20
18.97905759162305
 30
0.0
 11
-36.799999999999997
 21
19.47905759162305
 31
0.0
  0
LINE
  5
14A
  8
DATA
  6
CONTINUOUS
 62
     7
 10
-36.799999999999997
 20
16.97905759162305
 30
0.0
 11
-36.799999999999997
 21
17.47905759162305
 31
0.0
  0
LINE
  5
14B
  8
DATA
  6
CONTINUOUS
 62
     7
 10
-36.799999999999997
 20
14.97905759162305
 30
0.0
 11
-36.799999999999997
 21
15.47905759162304
 31
0.0
  0
LINE
  5
14C
  8
DATA
  6
CONTINUOUS
 62
     7
 10
-36.799999999999997
 20
12.97905759162304
 30
0.0
 11
-36.799999999999997
 21
13.47905759162304
 31
0.0
  0
LINE
  5
14D
  8
DATA
  6
CONTINUOUS
 62
     7
 10
-36.799999999999997
 20
10.97905759162304
 30
0.0
 11
-36.799999999999997
 21
11.47905759162304
 31
0.0
  0
LINE
  5
14E
  8
DATA
  6
CONTINUOUS
 62
     7
 10
-36.799999999999997
 20
8.9790575916230466
 30
0.0
 11
-36.799999999999997
 21
9.4790575916230466
 31
0.0
  0
LINE
  5
14F
  8
DATA
  6
CONTINUOUS
 62
     7
 10
-36.799999999999997
 20
6.9790575916230466
 30
0.0
 11
-36.799999999999997
 21
7.4790575916230457
 31
0.0
  0
LINE
  5
150
  8
DATA
  6
CONTINUOUS
 62
     7
 10
-36.799999999999997
 20
4.9790575916230466
 30
0.0
 11
-36.799999999999997
 21
5.4790575916230466
 31
0.0
  0
LINE
  5
151
  8
DATA
  6
CONTINUOUS
 62
     7
 10
-36.799999999999997
 20
2.9790575916230462
 30
0.0
 11
-36.799999999999997
 21
3.4790575916230462
 31
0.0
  0
LINE
  5
152
  8
DATA
  6
CONTINUOUS
 62
     7
 10
-36.799999999999997
 20
0.9790575916230466
 30
0.0
 11
-36.799999999999997
 21
1.479057591623046
 31
0.0
  0
LINE
  5
153
  8
DATA
  6
CONTINUOUS
 62
     7
 10
-36.799999999999997
 20
-1.0209424083769529
 30
0.0
 11
-36.799999999999997
 21
-0.5209424083769534
 31
0.0
  0
LINE
  5
154
  8
DATA
  6
CONTINUOUS
 62
     7
 10
-36.799999999999997
 20
-2.9999999999999849
 30
0.0
 11
-36.799999999999997
 21
-2.5209424083769529
 31
0.0
  0
LINE
  5
155
  8
DATA
  6
CONTINUOUS
 62
     7
 10
-45.25
 20
-11.69999999999999
 30
0.0
 11
-45.25
 21
-7.8999999999999897
 31
0.0
  0
LINE
  5
156
  8
DATA
  6
CONTINUOUS
 62
     7
 10
-35.75
 20
-11.69999999999999
 30
0.0
 11
-45.25
 21
-11.69999999999999
 31
0.0
  0
LINE
  5
157
  8
DATA
  6
CONTINUOUS
 62
     7
 10
-35.75
 20
-7.8999999999999897
 30
0.0
 11
-35.75
 21
-11.69999999999999
 31
0.0
  0
LINE
  5
158
  8
DATA
  6
CONTINUOUS
 62
     7
 10
-45.25
 20
-7.8999999999999897
 30
0.0
 11
-35.75
 21
-7.8999999999999897
 31
0.0
  0
LINE
  5
159
  8
DATA
  6
CONTINUOUS
 62
     7
 10
-45.25
 20
-6.7999999999999901
 30
0.0
 11
-45.25
 21
-2.999999999999992
 31
0.0
  0
LINE
  5
15A
  8
DATA
  6
CONTINUOUS
 62
     7
 10
-35.75
 20
-6.7999999999999901
 30
0.0
 11
-45.25
 21
-6.7999999999999901
 31
0.0
  0
LINE
  5
15B
  8
DATA
  6
CONTINUOUS
 62
     7
 10
-35.75
 20
-2.999999999999992
 30
0.0
 11
-35.75
 21
-6.7999999999999901
 31
0.0
  0
LINE
  5
15C
  8
DATA
  6
CONTINUOUS
 62
     7
 10
-45.25
 20
-2.999999999999992
 30
0.0
 11
-35.75
 21
-2.999999999999992
 31
0.0
  0
LINE
  5
15D
  8
DATA
  6
CONTINUOUS
 62
     7
 10
-44.450000000000003
 20
-7.8999999999999897
 30
0.0
 11
-44.450000000000003
 21
-6.7999999999999901
 31
0.0
  0
LINE
  5
15E
  8
DATA
  6
CONTINUOUS
 62
     7
 10
-36.549999999999997
 20
-7.8999999999999897
 30
0.0
 11
-36.549999999999997
 21
-6.7999999999999901
 31
0.0
  0
LINE
  5
15F
  8
DATA
  6
CONTINUOUS
 62
     7
 10
-44.450000000000003
 20
-12.79999999999999
 30
0.0
 11
-44.450000000000003
 21
-11.69999999999999
 31
0.0
  0
LINE
  5
160
  8
DATA
  6
CONTINUOUS
 62
     7
 10
-36.549999999999997
 20
-12.79999999999999
 30
0.0
 11
-36.549999999999997
 21
-11.69999999999999
 31
0.0
  0
LINE
  5
161
  8
DATA
  6
CONTINUOUS
 62
     7
 10
-45.25
 20
-12.79999999999999
 30
0.0
 11
-35.75
 21
-12.79999999999999
 31
0.0
  0
LINE
  5
162
  8
DATA
  6
CONTINUOUS
 62
     7
 10
-45.25
 20
-26.732118710180409
 30
0.0
 11
-45.25
 21
-12.79999999999999
 31
0.0
  0
LINE
  5
163
  8
DATA
  6
CONTINUOUS
 62
     7
 10
-35.75
 20
-26.732118710180409
 30
0.0
 11
-35.75
 21
-12.79999999999999
 31
0.0
  0
LINE
  5
164
  8
DATA
  6
CONTINUOUS
 62
     7
 10
-36.799999999999997
 20
48.979057591623047
 30
0.0
 11
-36.799999999999997
 21
49.479057591623047
 31
0.0
  0
LINE
  5
165
  8
DATA
  6
CONTINUOUS
 62
     7
 10
-36.799999999999997
 20
50.979057591623047
 30
0.0
 11
-36.799999999999997
 21
51.479057591623047
 31
0.0
  0
CIRCLE
  5
166
  8
DATA
  6
CONTINUOUS
 62
     7
 10
-44.5
 20
-160.0
 30
0.0
 40
1.200000000000002
  0
CIRCLE
  5
167
  8
DATA
  6
CONTINUOUS
 62
     7
 10
-40.499999999999993
 20
-164.0
 30
0.0
 40
1.200000000000002
  0
CIRCLE
  5
168
  8
DATA
  6
CONTINUOUS
 62
     7
 10
-36.5
 20
-160.0
 30
0.0
 40
1.200000000000002
  0
ARC
  5
169
  8
DATA
  6
CONTINUOUS
 62
     7
 10
-36.330519544566101
 20
-153.5389609108677
 30
0.0
 40
1.19999999999999
 50
337.87719435964959
 51
136.45234652942801
  0
CIRCLE
  5
16A
  8
DATA
  6
CONTINUOUS
 62
     7
 10
-40.499999999999993
 20
-113.0
 30
0.0
 40
2.0999999999999939
  0
LINE
  5
16B
  8
DATA
  6
CONTINUOUS
 62
     7
 10
-41.524125777290493
 20
-113.0
 30
0.0
 11
-39.475874222709507
 21
-113.0
 31
0.0
  0
LINE
  5
16C
  8
DATA
  6
CONTINUOUS
 62
     7
 10
-40.499999999999993
 20
-114.02412577729049
 30
0.0
 11
-40.499999999999993
 21
-111.97587422270951
 31
0.0
  0
ARC
  5
16D
  8
DATA
  6
CONTINUOUS
 62
     7
 10
-40.499999999999993
 20
-155.1298519033819
 30
0.0
 40
4.870148096618542
 50
64.493439204739659
 51
115.5065607952605
  0
TEXT
  5
16E
  8
DATA
 62
     7
 10
-44.944999999999993
 20
-64.541010231111315
 30
0.0
 40
1.954609375
  1
GE 15 E
 41
0.7
 11
-44.944999999999993
 21
-63.56370554361132
 31
0.0
 73
     2
  0
CIRCLE
  5
16F
  8
DATA
  6
CONTINUOUS
 62
     7
 10
-40.499999999999993
 20
120.0
 30
0.0
 40
7.0
  0
CIRCLE
  5
170
  8
DATA
  6
CONTINUOUS
 62
     7
 10
-40.499999999999993
 20
120.0
 30
0.0
 40
1.400000000000005
  0
CIRCLE
  5
171
  8
DATA
  6
CONTINUOUS
 62
     7
 10
-40.499999999999993
 20
120.0
 30
0.0
 40
5.8499999999999934
  0
CIRCLE
  5
172
  8
DATA
  6
CONTINUOUS
 62
     7
 10
-40.499999999999993
 20
120.0
 30
0.0
 40
0.75
  0
LINE
  5
173
  8
DATA
  6
CONTINUOUS
 62
     7
 10
20.0
 20
-130.0
 30
0.0
 11
20.0
 21
-68.833666932835882
 31
0.0
  0
LINE
  5
174
  8
DATA
  6
CONTINUOUS
 62
     7
 10
39.0
 20
-130.0
 30
0.0
 11
20.0
 21
-130.0
 31
0.0
  0
LINE
  5
175
  8
DATA
  6
CONTINUOUS
 62
     7
 10
119.2069380864248
 20
42.151145656021527
 30
0.0
 11
119.2069380864248
 21
28.151145656021541
 31
0.0
  0
LINE
  5
176
  8
DATA
  6
CONTINUOUS
 62
     7
 10
109.9369380864249
 20
41.651145656021527
 30
0.0
 11
119.2069380864248
 21
42.151145656021527
 31
0.0
  0
LINE
  5
177
  8
DATA
  6
CONTINUOUS
 62
     7
 10
109.9369380864249
 20
28.651145656021541
 30
0.0
 11
119.2069380864248
 21
28.151145656021541
 31
0.0
  0
LINE
  5
178
  8
DATA
  6
CONTINUOUS
 62
     7
 10
107.13693808642491
 20
41.251145656021563
 30
0.0
 11
107.13693808642491
 21
29.051145656021539
 31
0.0
  0
LINE
  5
179
  8
DATA
  6
CONTINUOUS
 62
     7
 10
80.848629499834843
 20
39.90756257015564
 30
0.0
 11
80.848629499834843
 21
30.39472874188748
 31
0.0
  0
LINE
  5
17A
  8
DATA
  6
CONTINUOUS
 62
     7
 10
107.13693808642491
 20
41.251145656021528
 30
0.0
 11
109.9369380864249
 21
41.651145656021527
 31
0.0
  0
LINE
  5
17B
  8
DATA
  6
CONTINUOUS
 62
     7
 10
107.13693808642491
 20
29.051145656021539
 30
0.0
 11
109.9369380864249
 21
28.651145656021541
 31
0.0
  0
LINE
  5
17C
  8
DATA
  6
CONTINUOUS
 62
     7
 10
80.848629499834843
 20
39.90756257015564
 30
0.0
 11
90.206938086424998
 21
40.001145656021563
 31
0.0
  0
LINE
  5
17D
  8
DATA
  6
CONTINUOUS
 62
     7
 10
80.848629499834843
 20
30.394728741887452
 30
0.0
 11
90.206938086424998
 21
30.30114565602155
 31
0.0
  0
LINE
  5
17E
  8
DATA
  6
CONTINUOUS
 62
     7
 10
90.206938086424998
 20
40.001145656021563
 30
0.0
 11
94.206938086424984
 21
40.101145656021558
 31
0.0
  0
LINE
  5
17F
  8
DATA
  6
CONTINUOUS
 62
     7
 10
90.206938086424998
 20
30.30114565602155
 30
0.0
 11
94.206938086424984
 21
30.201145656021549
 31
0.0
  0
LINE
  5
180
  8
DATA
  6
CONTINUOUS
 62
     7
 10
94.206938086424984
 20
40.101145656021558
 30
0.0
 11
107.13693808642491
 21
41.251145656021528
 31
0.0
  0
LINE
  5
181
  8
DATA
  6
CONTINUOUS
 62
     7
 10
94.206938086424984
 20
30.201145656021549
 30
0.0
 11
107.13693808642491
 21
29.051145656021539
 31
0.0
  0
LINE
  5
182
  8
DATA
  6
CONTINUOUS
 62
     7
 10
109.33693808642489
 20
41.56543137030728
 30
0.0
 11
109.33693808642489
 21
28.736859941735801
 31
0.0
  0
ARC
  5
183
  8
DATA
  6
CONTINUOUS
 62
     7
 10
332.42967625899632
 20
-89.578848920863805
 30
0.0
 40
313.3949942509866
 50
169.60756357651911
 51
174.671651491348
  0
ARC
  5
184
  8
DATA
  6
CONTINUOUS
 62
     7
 10
-10.25000000000065
 20
-26.732118710180409
 30
0.0
 40
35.000000000000647
 50
349.60756357651923
 51
0.0
  0
ARC
  5
185
  8
DATA
  6
CONTINUOUS
 62
     7
 10
110.00000000000119
 20
-68.833666932835882
 30
0.0
 40
90.000000000001265
 50
175.3846076817866
 51
180.0
  0
LINE
  5
186
  8
DATA
  6
CONTINUOUS
 62
     7
 10
20.291843241533211
 20
-61.591663687990618
 30
0.0
 11
20.388901369837811
 21
-60.47597572680624
 31
0.0
  0
LINE
  5
187
  8
DATA
  6
CONTINUOUS
 62
     7
 10
39.0
 20
-130.0
 30
0.0
 11
39.0
 21
-68.833666932835882
 31
0.0
  0
ARC
  5
188
  8
DATA
  6
CONTINUOUS
 62
     7
 10
-273.42967625899632
 20
-89.578848920863805
 30
0.0
 40
313.3949942509866
 50
5.3283485086520637
 51
10.39243642348095
  0
ARC
  5
189
  8
DATA
  6
CONTINUOUS
 62
     7
 10
69.250000000000654
 20
-26.732118710180409
 30
0.0
 40
35.000000000000647
 50
180.0
 51
190.39243642348069
  0
ARC
  5
18A
  8
DATA
  6
CONTINUOUS
 62
     7
 10
-51.000000000001279
 20
-68.833666932835882
 30
0.0
 40
90.000000000001265
 50
0.0
 51
4.6153923182133667
  0
LINE
  5
18B
  8
DATA
  6
CONTINUOUS
 62
     7
 10
38.708156758466778
 20
-61.591663687990618
 30
0.0
 11
38.611098630162189
 21
-60.47597572680624
 31
0.0
  0
POLYLINE
  5
18C
  8
DATA
  6
CONTINUOUS
 62
     7
 66
     1
 10
0.0
 20
0.0
 30
0.0
 70
     1
  0
VERTEX
  5
314
  8
DATA
  6
CONTINUOUS
 62
     7
 10
75.006938086425023
 20
39.901145656021541
 30
0.0
  0
VERTEX
  5
315
  8
DATA
  6
CONTINUOUS
 62
     7
 10
75.006938086425023
 20
30.401145656021541
 30
0.0
  0
VERTEX
  5
316
  8
DATA
  6
CONTINUOUS
 62
     7
 10
71.206938086425012
 20
30.401145656021541
 30
0.0
  0
VERTEX
  5
317
  8
DATA
  6
CONTINUOUS
 62
     7
 10
71.206938086425012
 20
39.901145656021541
 30
0.0
  0
SEQEND
  5
318
  8
DATA
  6
CONTINUOUS
 62
     7
  0
POLYLINE
  5
193
  8
DATA
  6
CONTINUOUS
 62
     7
 66
     1
 10
0.0
 20
0.0
 30
0.0
 70
     1
  0
VERTEX
  5
319
  8
DATA
  6
CONTINUOUS
 62
     7
 10
79.906938086424987
 20
39.901145656021541
 30
0.0
  0
VERTEX
  5
31A
  8
DATA
  6
CONTINUOUS
 62
     7
 10
79.906938086424987
 20
30.401145656021541
 30
0.0
  0
VERTEX
  5
31B
  8
DATA
  6
CONTINUOUS
 62
     7
 10
76.106938086424975
 20
30.401145656021541
 30
0.0
  0
VERTEX
  5
31C
  8
DATA
  6
CONTINUOUS
 62
     7
 10
76.106938086424975
 20
39.901145656021541
 30
0.0
  0
SEQEND
  5
31D
  8
DATA
  6
CONTINUOUS
 62
     7
  0
LINE
  5
19A
  8
DATA
  6
CONTINUOUS
 62
     7
 10
75.006938086425023
 20
39.101145656021572
 30
0.0
 11
76.106938086424975
 21
39.101145656021572
 31
0.0
  0
LINE
  5
19B
  8
DATA
  6
CONTINUOUS
 62
     7
 10
75.006938086425023
 20
31.201145656021549
 30
0.0
 11
76.106938086424975
 21
31.201145656021549
 31
0.0
  0
LINE
  5
19C
  8
DATA
  6
CONTINUOUS
 62
     7
 10
79.906938086425015
 20
39.101145656021572
 30
0.0
 11
80.848629499834843
 21
39.101145656021572
 31
0.0
  0
LINE
  5
19D
  8
DATA
  6
CONTINUOUS
 62
     7
 10
79.906938086425015
 20
31.201145656021549
 30
0.0
 11
80.848629499834843
 21
31.201145656021549
 31
0.0
  0
LINE
  5
19E
  8
DATA
  6
CONTINUOUS
 62
     7
 10
71.206938086425012
 20
31.201145656021549
 30
0.0
 11
70.545157981712947
 21
39.101145656021572
 31
0.0
  0
LINE
  5
19F
  8
DATA
  6
CONTINUOUS
 62
     7
 10
69.706938086425012
 20
31.201145656021549
 30
0.0
 11
69.045157981712961
 21
39.101145656021572
 31
0.0
  0
LINE
  5
1A0
  8
DATA
  6
CONTINUOUS
 62
     7
 10
69.045157981712961
 20
39.101145656021572
 30
0.0
 11
70.545157981712947
 21
39.101145656021572
 31
0.0
  0
LINE
  5
1A1
  8
DATA
  6
CONTINUOUS
 62
     7
 10
69.706938086425012
 20
31.201145656021549
 30
0.0
 11
71.206938086425012
 21
31.201145656021549
 31
0.0
  0
LINE
  5
1A2
  8
DATA
  6
CONTINUOUS
 62
     7
 10
69.206938086425012
 20
31.201145656021549
 30
0.0
 11
68.545157981712961
 21
39.101145656021572
 31
0.0
  0
LINE
  5
1A3
  8
DATA
  6
CONTINUOUS
 62
     7
 10
67.706938086425012
 20
31.201145656021549
 30
0.0
 11
67.045157981712961
 21
39.101145656021572
 31
0.0
  0
LINE
  5
1A4
  8
DATA
  6
CONTINUOUS
 62
     7
 10
67.045157981712961
 20
39.101145656021572
 30
0.0
 11
68.545157981712961
 21
39.101145656021572
 31
0.0
  0
LINE
  5
1A5
  8
DATA
  6
CONTINUOUS
 62
     7
 10
67.706938086425012
 20
31.201145656021549
 30
0.0
 11
69.206938086425012
 21
31.201145656021549
 31
0.0
  0
LINE
  5
1A6
  8
DATA
  6
CONTINUOUS
 62
     7
 10
68.566100390089929
 20
38.851145656021572
 30
0.0
 11
69.066100390089929
 21
38.851145656021572
 31
0.0
  0
LINE
  5
1A7
  8
DATA
  6
CONTINUOUS
 62
     7
 10
70.566100390089943
 20
38.851145656021572
 30
0.0
 11
71.206938086425012
 21
38.851145656021572
 31
0.0
  0
LINE
  5
1A8
  8
DATA
  6
CONTINUOUS
 62
     7
 10
69.185995678048045
 20
31.451145656021549
 30
0.0
 11
69.685995678048045
 21
31.451145656021549
 31
0.0
  0
LINE
  5
1A9
  8
DATA
  6
CONTINUOUS
 62
     7
 10
67.206938086425012
 20
31.201145656021549
 30
0.0
 11
66.545157981712961
 21
39.101145656021572
 31
0.0
  0
LINE
  5
1AA
  8
DATA
  6
CONTINUOUS
 62
     7
 10
65.706938086425012
 20
31.201145656021549
 30
0.0
 11
65.045157981712961
 21
39.101145656021572
 31
0.0
  0
LINE
  5
1AB
  8
DATA
  6
CONTINUOUS
 62
     7
 10
65.045157981712961
 20
39.101145656021572
 30
0.0
 11
66.545157981712961
 21
39.101145656021572
 31
0.0
  0
LINE
  5
1AC
  8
DATA
  6
CONTINUOUS
 62
     7
 10
65.706938086425012
 20
31.201145656021549
 30
0.0
 11
67.206938086425012
 21
31.201145656021549
 31
0.0
  0
LINE
  5
1AD
  8
DATA
  6
CONTINUOUS
 62
     7
 10
66.566100390089929
 20
38.851145656021572
 30
0.0
 11
67.066100390089915
 21
38.851145656021572
 31
0.0
  0
LINE
  5
1AE
  8
DATA
  6
CONTINUOUS
 62
     7
 10
65.206938086425012
 20
31.201145656021549
 30
0.0
 11
64.545157981712961
 21
39.101145656021572
 31
0.0
  0
LINE
  5
1AF
  8
DATA
  6
CONTINUOUS
 62
     7
 10
63.706938086424991
 20
31.201145656021549
 30
0.0
 11
63.045157981712947
 21
39.101145656021572
 31
0.0
  0
LINE
  5
1B0
  8
DATA
  6
CONTINUOUS
 62
     7
 10
63.045157981712947
 20
39.101145656021572
 30
0.0
 11
64.545157981712961
 21
39.101145656021572
 31
0.0
  0
LINE
  5
1B1
  8
DATA
  6
CONTINUOUS
 62
     7
 10
63.706938086424991
 20
31.201145656021549
 30
0.0
 11
65.206938086425012
 21
31.201145656021549
 31
0.0
  0
LINE
  5
1B2
  8
DATA
  6
CONTINUOUS
 62
     7
 10
64.566100390089915
 20
38.851145656021572
 30
0.0
 11
65.066100390089929
 21
38.851145656021572
 31
0.0
  0
LINE
  5
1B3
  8
DATA
  6
CONTINUOUS
 62
     7
 10
63.206938086424991
 20
31.201145656021549
 30
0.0
 11
62.545157981712947
 21
39.101145656021572
 31
0.0
  0
LINE
  5
1B4
  8
DATA
  6
CONTINUOUS
 62
     7
 10
61.706938086424998
 20
31.201145656021549
 30
0.0
 11
61.045157981712947
 21
39.101145656021572
 31
0.0
  0
LINE
  5
1B5
  8
DATA
  6
CONTINUOUS
 62
     7
 10
61.045157981712947
 20
39.101145656021572
 30
0.0
 11
62.545157981712947
 21
39.101145656021572
 31
0.0
  0
LINE
  5
1B6
  8
DATA
  6
CONTINUOUS
 62
     7
 10
61.706938086424998
 20
31.201145656021549
 30
0.0
 11
63.206938086424991
 21
31.201145656021549
 31
0.0
  0
LINE
  5
1B7
  8
DATA
  6
CONTINUOUS
 62
     7
 10
62.5661003900899
 20
38.851145656021572
 30
0.0
 11
63.066100390089922
 21
38.851145656021572
 31
0.0
  0
LINE
  5
1B8
  8
DATA
  6
CONTINUOUS
 62
     7
 10
61.206938086424991
 20
31.201145656021549
 30
0.0
 11
60.545157981712933
 21
39.101145656021572
 31
0.0
  0
LINE
  5
1B9
  8
DATA
  6
CONTINUOUS
 62
     7
 10
59.706938086424977
 20
31.201145656021549
 30
0.0
 11
59.045157981712933
 21
39.101145656021572
 31
0.0
  0
LINE
  5
1BA
  8
DATA
  6
CONTINUOUS
 62
     7
 10
59.045157981712933
 20
39.101145656021572
 30
0.0
 11
60.545157981712933
 21
39.101145656021572
 31
0.0
  0
LINE
  5
1BB
  8
DATA
  6
CONTINUOUS
 62
     7
 10
59.706938086424977
 20
31.201145656021549
 30
0.0
 11
61.206938086424991
 21
31.201145656021549
 31
0.0
  0
LINE
  5
1BC
  8
DATA
  6
CONTINUOUS
 62
     7
 10
60.5661003900899
 20
38.851145656021572
 30
0.0
 11
61.0661003900899
 21
38.851145656021572
 31
0.0
  0
LINE
  5
1BD
  8
DATA
  6
CONTINUOUS
 62
     7
 10
59.206938086424977
 20
31.201145656021549
 30
0.0
 11
58.545157981712933
 21
39.101145656021572
 31
0.0
  0
LINE
  5
1BE
  8
DATA
  6
CONTINUOUS
 62
     7
 10
57.706938086424969
 20
31.201145656021549
 30
0.0
 11
57.045157981712933
 21
39.101145656021572
 31
0.0
  0
LINE
  5
1BF
  8
DATA
  6
CONTINUOUS
 62
     7
 10
57.045157981712933
 20
39.101145656021572
 30
0.0
 11
58.545157981712933
 21
39.101145656021572
 31
0.0
  0
LINE
  5
1C0
  8
DATA
  6
CONTINUOUS
 62
     7
 10
57.706938086424969
 20
31.201145656021549
 30
0.0
 11
59.206938086424977
 21
31.201145656021549
 31
0.0
  0
LINE
  5
1C1
  8
DATA
  6
CONTINUOUS
 62
     7
 10
58.566100390089893
 20
38.851145656021572
 30
0.0
 11
59.066100390089893
 21
38.851145656021572
 31
0.0
  0
LINE
  5
1C2
  8
DATA
  6
CONTINUOUS
 62
     7
 10
57.206938086424969
 20
31.201145656021549
 30
0.0
 11
56.545157981712919
 21
39.101145656021572
 31
0.0
  0
LINE
  5
1C3
  8
DATA
  6
CONTINUOUS
 62
     7
 10
55.706938086424969
 20
31.201145656021549
 30
0.0
 11
55.045157981712933
 21
39.101145656021572
 31
0.0
  0
LINE
  5
1C4
  8
DATA
  6
CONTINUOUS
 62
     7
 10
55.045157981712933
 20
39.101145656021572
 30
0.0
 11
56.545157981712919
 21
39.101145656021572
 31
0.0
  0
LINE
  5
1C5
  8
DATA
  6
CONTINUOUS
 62
     7
 10
55.706938086424969
 20
31.201145656021549
 30
0.0
 11
57.206938086424969
 21
31.201145656021549
 31
0.0
  0
LINE
  5
1C6
  8
DATA
  6
CONTINUOUS
 62
     7
 10
56.566100390089893
 20
38.851145656021572
 30
0.0
 11
57.066100390089893
 21
38.851145656021572
 31
0.0
  0
LINE
  5
1C7
  8
DATA
  6
CONTINUOUS
 62
     7
 10
55.206938086424969
 20
31.201145656021549
 30
0.0
 11
54.545157981712933
 21
39.101145656021572
 31
0.0
  0
LINE
  5
1C8
  8
DATA
  6
CONTINUOUS
 62
     7
 10
53.706938086424969
 20
31.201145656021549
 30
0.0
 11
53.045157981712919
 21
39.101145656021572
 31
0.0
  0
LINE
  5
1C9
  8
DATA
  6
CONTINUOUS
 62
     7
 10
53.045157981712919
 20
39.101145656021572
 30
0.0
 11
54.545157981712933
 21
39.101145656021572
 31
0.0
  0
LINE
  5
1CA
  8
DATA
  6
CONTINUOUS
 62
     7
 10
53.706938086424969
 20
31.201145656021549
 30
0.0
 11
55.206938086424969
 21
31.201145656021549
 31
0.0
  0
LINE
  5
1CB
  8
DATA
  6
CONTINUOUS
 62
     7
 10
54.566100390089858
 20
38.851145656021572
 30
0.0
 11
55.066100390089858
 21
38.851145656021572
 31
0.0
  0
LINE
  5
1CC
  8
DATA
  6
CONTINUOUS
 62
     7
 10
53.206938086424969
 20
31.201145656021549
 30
0.0
 11
52.545157981712933
 21
39.101145656021572
 31
0.0
  0
LINE
  5
1CD
  8
DATA
  6
CONTINUOUS
 62
     7
 10
51.706938086424962
 20
31.201145656021549
 30
0.0
 11
53.206938086424969
 21
31.201145656021549
 31
0.0
  0
LINE
  5
1CE
  8
DATA
  6
CONTINUOUS
 62
     7
 10
52.566100390089858
 20
38.851145656021572
 30
0.0
 11
53.066100390089872
 21
38.851145656021572
 31
0.0
  0
LINE
  5
1CF
  8
DATA
  6
CONTINUOUS
 62
     7
 10
33.45000000000001
 20
21.000000000000011
 30
0.0
 11
25.550000000000001
 21
20.33821989528796
 31
0.0
  0
LINE
  5
1D0
  8
DATA
  6
CONTINUOUS
 62
     7
 10
33.45000000000001
 20
19.500000000000011
 30
0.0
 11
25.550000000000001
 21
18.83821989528796
 31
0.0
  0
LINE
  5
1D1
  8
DATA
  6
CONTINUOUS
 62
     7
 10
25.550000000000001
 20
18.83821989528796
 30
0.0
 11
25.550000000000001
 21
20.33821989528796
 31
0.0
  0
LINE
  5
1D2
  8
DATA
  6
CONTINUOUS
 62
     7
 10
33.45000000000001
 20
19.500000000000011
 30
0.0
 11
33.45000000000001
 21
21.000000000000011
 31
0.0
  0
LINE
  5
1D3
  8
DATA
  6
CONTINUOUS
 62
     7
 10
33.45000000000001
 20
19.000000000000011
 30
0.0
 11
25.550000000000001
 21
18.33821989528796
 31
0.0
  0
LINE
  5
1D4
  8
DATA
  6
CONTINUOUS
 62
     7
 10
33.45000000000001
 20
17.500000000000011
 30
0.0
 11
25.550000000000001
 21
16.83821989528796
 31
0.0
  0
LINE
  5
1D5
  8
DATA
  6
CONTINUOUS
 62
     7
 10
25.550000000000001
 20
16.83821989528796
 30
0.0
 11
25.550000000000001
 21
18.33821989528796
 31
0.0
  0
LINE
  5
1D6
  8
DATA
  6
CONTINUOUS
 62
     7
 10
33.45000000000001
 20
17.500000000000011
 30
0.0
 11
33.45000000000001
 21
19.000000000000011
 31
0.0
  0
LINE
  5
1D7
  8
DATA
  6
CONTINUOUS
 62
     7
 10
25.800000000000001
 20
18.35916230366492
 30
0.0
 11
25.800000000000001
 21
18.85916230366492
 31
0.0
  0
LINE
  5
1D8
  8
DATA
  6
CONTINUOUS
 62
     7
 10
33.45000000000001
 20
17.000000000000021
 30
0.0
 11
25.550000000000001
 21
16.33821989528796
 31
0.0
  0
LINE
  5
1D9
  8
DATA
  6
CONTINUOUS
 62
     7
 10
33.45000000000001
 20
15.500000000000011
 30
0.0
 11
25.550000000000001
 21
14.83821989528796
 31
0.0
  0
LINE
  5
1DA
  8
DATA
  6
CONTINUOUS
 62
     7
 10
25.550000000000001
 20
14.83821989528796
 30
0.0
 11
25.550000000000001
 21
16.33821989528796
 31
0.0
  0
LINE
  5
1DB
  8
DATA
  6
CONTINUOUS
 62
     7
 10
33.45000000000001
 20
15.500000000000011
 30
0.0
 11
33.45000000000001
 21
17.000000000000021
 31
0.0
  0
LINE
  5
1DC
  8
DATA
  6
CONTINUOUS
 62
     7
 10
25.800000000000001
 20
16.359162303664931
 30
0.0
 11
25.800000000000001
 21
16.859162303664931
 31
0.0
  0
LINE
  5
1DD
  8
DATA
  6
CONTINUOUS
 62
     7
 10
33.45000000000001
 20
15.000000000000011
 30
0.0
 11
25.550000000000001
 21
14.33821989528796
 31
0.0
  0
LINE
  5
1DE
  8
DATA
  6
CONTINUOUS
 62
     7
 10
33.45000000000001
 20
13.500000000000011
 30
0.0
 11
25.550000000000001
 21
12.83821989528796
 31
0.0
  0
LINE
  5
1DF
  8
DATA
  6
CONTINUOUS
 62
     7
 10
25.550000000000001
 20
12.83821989528796
 30
0.0
 11
25.550000000000001
 21
14.33821989528796
 31
0.0
  0
LINE
  5
1E0
  8
DATA
  6
CONTINUOUS
 62
     7
 10
33.45000000000001
 20
13.500000000000011
 30
0.0
 11
33.45000000000001
 21
15.000000000000011
 31
0.0
  0
LINE
  5
1E1
  8
DATA
  6
CONTINUOUS
 62
     7
 10
25.800000000000001
 20
14.359162303664929
 30
0.0
 11
25.800000000000001
 21
14.859162303664929
 31
0.0
  0
LINE
  5
1E2
  8
DATA
  6
CONTINUOUS
 62
     7
 10
33.45000000000001
 20
13.000000000000011
 30
0.0
 11
25.550000000000001
 21
12.33821989528796
 31
0.0
  0
LINE
  5
1E3
  8
DATA
  6
CONTINUOUS
 62
     7
 10
33.45000000000001
 20
11.500000000000011
 30
0.0
 11
25.550000000000001
 21
10.83821989528796
 31
0.0
  0
LINE
  5
1E4
  8
DATA
  6
CONTINUOUS
 62
     7
 10
25.550000000000001
 20
10.83821989528796
 30
0.0
 11
25.550000000000001
 21
12.33821989528796
 31
0.0
  0
LINE
  5
1E5
  8
DATA
  6
CONTINUOUS
 62
     7
 10
33.45000000000001
 20
11.500000000000011
 30
0.0
 11
33.45000000000001
 21
13.000000000000011
 31
0.0
  0
LINE
  5
1E6
  8
DATA
  6
CONTINUOUS
 62
     7
 10
25.800000000000001
 20
12.35916230366492
 30
0.0
 11
25.800000000000001
 21
12.85916230366492
 31
0.0
  0
LINE
  5
1E7
  8
DATA
  6
CONTINUOUS
 62
     7
 10
33.45000000000001
 20
11.000000000000011
 30
0.0
 11
25.550000000000001
 21
10.33821989528796
 31
0.0
  0
LINE
  5
1E8
  8
DATA
  6
CONTINUOUS
 62
     7
 10
33.45000000000001
 20
9.5000000000000142
 30
0.0
 11
25.550000000000001
 21
8.8382198952879634
 31
0.0
  0
LINE
  5
1E9
  8
DATA
  6
CONTINUOUS
 62
     7
 10
25.550000000000001
 20
8.8382198952879634
 30
0.0
 11
25.550000000000001
 21
10.33821989528796
 31
0.0
  0
LINE
  5
1EA
  8
DATA
  6
CONTINUOUS
 62
     7
 10
33.45000000000001
 20
9.5000000000000142
 30
0.0
 11
33.45000000000001
 21
11.000000000000011
 31
0.0
  0
LINE
  5
1EB
  8
DATA
  6
CONTINUOUS
 62
     7
 10
25.800000000000001
 20
10.35916230366492
 30
0.0
 11
25.800000000000001
 21
10.85916230366492
 31
0.0
  0
LINE
  5
1EC
  8
DATA
  6
CONTINUOUS
 62
     7
 10
33.45000000000001
 20
9.0000000000000142
 30
0.0
 11
25.550000000000001
 21
8.3382198952879634
 31
0.0
  0
LINE
  5
1ED
  8
DATA
  6
CONTINUOUS
 62
     7
 10
33.45000000000001
 20
7.5000000000000142
 30
0.0
 11
25.550000000000001
 21
6.8382198952879634
 31
0.0
  0
LINE
  5
1EE
  8
DATA
  6
CONTINUOUS
 62
     7
 10
25.550000000000001
 20
6.8382198952879634
 30
0.0
 11
25.550000000000001
 21
8.3382198952879634
 31
0.0
  0
LINE
  5
1EF
  8
DATA
  6
CONTINUOUS
 62
     7
 10
33.45000000000001
 20
7.5000000000000142
 30
0.0
 11
33.45000000000001
 21
9.0000000000000142
 31
0.0
  0
LINE
  5
1F0
  8
DATA
  6
CONTINUOUS
 62
     7
 10
25.800000000000001
 20
8.3591623036649256
 30
0.0
 11
25.800000000000001
 21
8.8591623036649256
 31
0.0
  0
LINE
  5
1F1
  8
DATA
  6
CONTINUOUS
 62
     7
 10
33.45000000000001
 20
7.0000000000000142
 30
0.0
 11
25.550000000000001
 21
6.3382198952879634
 31
0.0
  0
LINE
  5
1F2
  8
DATA
  6
CONTINUOUS
 62
     7
 10
33.45000000000001
 20
5.5000000000000142
 30
0.0
 11
25.550000000000001
 21
4.8382198952879634
 31
0.0
  0
LINE
  5
1F3
  8
DATA
  6
CONTINUOUS
 62
     7
 10
25.550000000000001
 20
4.8382198952879634
 30
0.0
 11
25.550000000000001
 21
6.3382198952879634
 31
0.0
  0
LINE
  5
1F4
  8
DATA
  6
CONTINUOUS
 62
     7
 10
33.45000000000001
 20
5.5000000000000142
 30
0.0
 11
33.45000000000001
 21
7.0000000000000142
 31
0.0
  0
LINE
  5
1F5
  8
DATA
  6
CONTINUOUS
 62
     7
 10
25.800000000000001
 20
6.359162303664923
 30
0.0
 11
25.800000000000001
 21
6.859162303664923
 31
0.0
  0
LINE
  5
1F6
  8
DATA
  6
CONTINUOUS
 62
     7
 10
33.45000000000001
 20
5.0000000000000142
 30
0.0
 11
25.550000000000001
 21
4.3382198952879634
 31
0.0
  0
LINE
  5
1F7
  8
DATA
  6
CONTINUOUS
 62
     7
 10
33.45000000000001
 20
3.5000000000000142
 30
0.0
 11
25.550000000000001
 21
2.8382198952879629
 31
0.0
  0
LINE
  5
1F8
  8
DATA
  6
CONTINUOUS
 62
     7
 10
25.550000000000001
 20
2.8382198952879629
 30
0.0
 11
25.550000000000001
 21
4.3382198952879634
 31
0.0
  0
LINE
  5
1F9
  8
DATA
  6
CONTINUOUS
 62
     7
 10
33.45000000000001
 20
3.5000000000000142
 30
0.0
 11
33.45000000000001
 21
5.0000000000000142
 31
0.0
  0
LINE
  5
1FA
  8
DATA
  6
CONTINUOUS
 62
     7
 10
25.800000000000001
 20
4.359162303664923
 30
0.0
 11
25.800000000000001
 21
4.859162303664923
 31
0.0
  0
LINE
  5
1FB
  8
DATA
  6
CONTINUOUS
 62
     7
 10
33.45000000000001
 20
3.0000000000000142
 30
0.0
 11
25.550000000000001
 21
2.3382198952879629
 31
0.0
  0
LINE
  5
1FC
  8
DATA
  6
CONTINUOUS
 62
     7
 10
33.45000000000001
 20
1.500000000000014
 30
0.0
 11
25.550000000000001
 21
0.8382198952879633
 31
0.0
  0
LINE
  5
1FD
  8
DATA
  6
CONTINUOUS
 62
     7
 10
25.550000000000001
 20
0.8382198952879633
 30
0.0
 11
25.550000000000001
 21
2.3382198952879629
 31
0.0
  0
LINE
  5
1FE
  8
DATA
  6
CONTINUOUS
 62
     7
 10
33.45000000000001
 20
1.500000000000014
 30
0.0
 11
33.45000000000001
 21
3.0000000000000142
 31
0.0
  0
LINE
  5
1FF
  8
DATA
  6
CONTINUOUS
 62
     7
 10
25.800000000000001
 20
2.359162303664923
 30
0.0
 11
25.800000000000001
 21
2.859162303664923
 31
0.0
  0
LINE
  5
200
  8
DATA
  6
CONTINUOUS
 62
     7
 10
33.45000000000001
 20
1.000000000000014
 30
0.0
 11
25.550000000000001
 21
0.3382198952879634
 31
0.0
  0
LINE
  5
201
  8
DATA
  6
CONTINUOUS
 62
     7
 10
33.45000000000001
 20
-0.4999999999999858
 30
0.0
 11
25.550000000000001
 21
-1.161780104712036
 31
0.0
  0
LINE
  5
202
  8
DATA
  6
CONTINUOUS
 62
     7
 10
25.550000000000001
 20
-1.161780104712036
 30
0.0
 11
25.550000000000001
 21
0.3382198952879634
 31
0.0
  0
LINE
  5
203
  8
DATA
  6
CONTINUOUS
 62
     7
 10
33.45000000000001
 20
-0.4999999999999858
 30
0.0
 11
33.45000000000001
 21
1.000000000000014
 31
0.0
  0
LINE
  5
204
  8
DATA
  6
CONTINUOUS
 62
     7
 10
25.800000000000001
 20
0.3591623036649239
 30
0.0
 11
25.800000000000001
 21
0.8591623036649239
 31
0.0
  0
LINE
  5
205
  8
DATA
  6
CONTINUOUS
 62
     7
 10
33.45000000000001
 20
-0.9999999999999857
 30
0.0
 11
25.550000000000001
 21
-1.661780104712036
 31
0.0
  0
LINE
  5
206
  8
DATA
  6
CONTINUOUS
 62
     7
 10
33.45000000000001
 20
-2.4999999999999849
 30
0.0
 11
27.481250000000081
 21
-2.9999999999999849
 31
0.0
  0
LINE
  5
207
  8
DATA
  6
CONTINUOUS
 62
     7
 10
25.550000000000001
 20
-2.9999999999999849
 30
0.0
 11
25.550000000000001
 21
-1.661780104712036
 31
0.0
  0
LINE
  5
208
  8
DATA
  6
CONTINUOUS
 62
     7
 10
33.45000000000001
 20
-2.4999999999999849
 30
0.0
 11
33.45000000000001
 21
-0.9999999999999857
 31
0.0
  0
LINE
  5
209
  8
DATA
  6
CONTINUOUS
 62
     7
 10
25.800000000000001
 20
-1.640837696335075
 30
0.0
 11
25.800000000000001
 21
-1.140837696335075
 31
0.0
  0
LINE
  5
20A
  8
DATA
  6
CONTINUOUS
 62
     7
 10
63.18599567804803
 20
31.451145656021549
 30
0.0
 11
63.68599567804803
 21
31.451145656021549
 31
0.0
  0
LINE
  5
20B
  8
DATA
  6
CONTINUOUS
 62
     7
 10
61.185995678048009
 20
31.451145656021549
 30
0.0
 11
61.68599567804803
 21
31.451145656021549
 31
0.0
  0
LINE
  5
20C
  8
DATA
  6
CONTINUOUS
 62
     7
 10
59.185995678048009
 20
31.451145656021549
 30
0.0
 11
59.685995678048009
 21
31.451145656021549
 31
0.0
  0
LINE
  5
20D
  8
DATA
  6
CONTINUOUS
 62
     7
 10
57.185995678048002
 20
31.451145656021549
 30
0.0
 11
57.685995678048002
 21
31.451145656021549
 31
0.0
  0
LINE
  5
20E
  8
DATA
  6
CONTINUOUS
 62
     7
 10
55.185995678048002
 20
31.451145656021549
 30
0.0
 11
55.685995678048002
 21
31.451145656021549
 31
0.0
  0
LINE
  5
20F
  8
DATA
  6
CONTINUOUS
 62
     7
 10
53.185995678048002
 20
31.451145656021549
 30
0.0
 11
53.685995678048002
 21
31.451145656021549
 31
0.0
  0
LINE
  5
210
  8
DATA
  6
CONTINUOUS
 62
     7
 10
33.200000000000003
 20
18.97905759162305
 30
0.0
 11
33.200000000000003
 21
19.47905759162305
 31
0.0
  0
LINE
  5
211
  8
DATA
  6
CONTINUOUS
 62
     7
 10
33.200000000000003
 20
16.97905759162305
 30
0.0
 11
33.200000000000003
 21
17.47905759162305
 31
0.0
  0
LINE
  5
212
  8
DATA
  6
CONTINUOUS
 62
     7
 10
33.200000000000003
 20
14.97905759162305
 30
0.0
 11
33.200000000000003
 21
15.47905759162304
 31
0.0
  0
LINE
  5
213
  8
DATA
  6
CONTINUOUS
 62
     7
 10
33.200000000000003
 20
12.97905759162304
 30
0.0
 11
33.200000000000003
 21
13.47905759162304
 31
0.0
  0
LINE
  5
214
  8
DATA
  6
CONTINUOUS
 62
     7
 10
33.200000000000003
 20
10.97905759162304
 30
0.0
 11
33.200000000000003
 21
11.47905759162304
 31
0.0
  0
LINE
  5
215
  8
DATA
  6
CONTINUOUS
 62
     7
 10
33.200000000000003
 20
8.9790575916230466
 30
0.0
 11
33.200000000000003
 21
9.4790575916230466
 31
0.0
  0
LINE
  5
216
  8
DATA
  6
CONTINUOUS
 62
     7
 10
33.200000000000003
 20
6.9790575916230466
 30
0.0
 11
33.200000000000003
 21
7.4790575916230457
 31
0.0
  0
LINE
  5
217
  8
DATA
  6
CONTINUOUS
 62
     7
 10
33.200000000000003
 20
4.9790575916230466
 30
0.0
 11
33.200000000000003
 21
5.4790575916230466
 31
0.0
  0
LINE
  5
218
  8
DATA
  6
CONTINUOUS
 62
     7
 10
33.200000000000003
 20
2.9790575916230462
 30
0.0
 11
33.200000000000003
 21
3.4790575916230462
 31
0.0
  0
LINE
  5
219
  8
DATA
  6
CONTINUOUS
 62
     7
 10
33.200000000000003
 20
0.9790575916230466
 30
0.0
 11
33.200000000000003
 21
1.479057591623046
 31
0.0
  0
LINE
  5
21A
  8
DATA
  6
CONTINUOUS
 62
     7
 10
33.200000000000003
 20
-1.0209424083769529
 30
0.0
 11
33.200000000000003
 21
-0.5209424083769534
 31
0.0
  0
LINE
  5
21B
  8
DATA
  6
CONTINUOUS
 62
     7
 10
33.200000000000003
 20
-2.9999999999999849
 30
0.0
 11
33.200000000000003
 21
-2.5209424083769529
 31
0.0
  0
LINE
  5
21C
  8
DATA
  6
CONTINUOUS
 62
     7
 10
24.75
 20
-11.69999999999999
 30
0.0
 11
24.75
 21
-7.8999999999999897
 31
0.0
  0
LINE
  5
21D
  8
DATA
  6
CONTINUOUS
 62
     7
 10
34.25
 20
-11.69999999999999
 30
0.0
 11
24.75
 21
-11.69999999999999
 31
0.0
  0
LINE
  5
21E
  8
DATA
  6
CONTINUOUS
 62
     7
 10
34.25
 20
-7.8999999999999897
 30
0.0
 11
34.25
 21
-11.69999999999999
 31
0.0
  0
LINE
  5
21F
  8
DATA
  6
CONTINUOUS
 62
     7
 10
24.75
 20
-7.8999999999999897
 30
0.0
 11
34.25
 21
-7.8999999999999897
 31
0.0
  0
LINE
  5
220
  8
DATA
  6
CONTINUOUS
 62
     7
 10
24.75
 20
-6.7999999999999901
 30
0.0
 11
24.75
 21
-2.999999999999992
 31
0.0
  0
LINE
  5
221
  8
DATA
  6
CONTINUOUS
 62
     7
 10
34.25
 20
-6.7999999999999901
 30
0.0
 11
24.75
 21
-6.7999999999999901
 31
0.0
  0
LINE
  5
222
  8
DATA
  6
CONTINUOUS
 62
     7
 10
34.25
 20
-2.999999999999992
 30
0.0
 11
34.25
 21
-6.7999999999999901
 31
0.0
  0
LINE
  5
223
  8
DATA
  6
CONTINUOUS
 62
     7
 10
24.75
 20
-2.999999999999992
 30
0.0
 11
34.25
 21
-2.999999999999992
 31
0.0
  0
LINE
  5
224
  8
DATA
  6
CONTINUOUS
 62
     7
 10
25.550000000000001
 20
-7.8999999999999897
 30
0.0
 11
25.550000000000001
 21
-6.7999999999999901
 31
0.0
  0
LINE
  5
225
  8
DATA
  6
CONTINUOUS
 62
     7
 10
33.45000000000001
 20
-7.8999999999999897
 30
0.0
 11
33.45000000000001
 21
-6.7999999999999901
 31
0.0
  0
LINE
  5
226
  8
DATA
  6
CONTINUOUS
 62
     7
 10
25.550000000000001
 20
-12.79999999999999
 30
0.0
 11
25.550000000000001
 21
-11.69999999999999
 31
0.0
  0
LINE
  5
227
  8
DATA
  6
CONTINUOUS
 62
     7
 10
33.45000000000001
 20
-12.79999999999999
 30
0.0
 11
33.45000000000001
 21
-11.69999999999999
 31
0.0
  0
LINE
  5
228
  8
DATA
  6
CONTINUOUS
 62
     7
 10
24.75
 20
-12.79999999999999
 30
0.0
 11
34.25
 21
-12.79999999999999
 31
0.0
  0
LINE
  5
229
  8
DATA
  6
CONTINUOUS
 62
     7
 10
24.75
 20
-26.732118710180409
 30
0.0
 11
24.75
 21
-12.79999999999999
 31
0.0
  0
LINE
  5
22A
  8
DATA
  6
CONTINUOUS
 62
     7
 10
34.25
 20
-26.732118710180409
 30
0.0
 11
34.25
 21
-12.79999999999999
 31
0.0
  0
LINE
  5
22B
  8
DATA
  6
CONTINUOUS
 62
     7
 10
65.185995678048045
 20
31.451145656021549
 30
0.0
 11
65.685995678048045
 21
31.451145656021549
 31
0.0
  0
LINE
  5
22C
  8
DATA
  6
CONTINUOUS
 62
     7
 10
67.185995678048045
 20
31.451145656021549
 30
0.0
 11
67.685995678048045
 21
31.451145656021549
 31
0.0
  0
ARC
  5
22D
  8
DATA
  6
CONTINUOUS
 62
     7
 10
35.549999999999997
 20
29.101145656021561
 30
0.0
 40
10.0
 50
90.0
 51
180.0
  0
LINE
  5
22E
  8
DATA
  6
CONTINUOUS
 62
     7
 10
53.206938086424991
 20
31.201145656021549
 30
0.0
 11
52.545157981712947
 21
39.101145656021572
 31
0.0
  0
LINE
  5
22F
  8
DATA
  6
CONTINUOUS
 62
     7
 10
51.706938086424998
 20
31.201145656021549
 30
0.0
 11
51.045157981712947
 21
39.101145656021572
 31
0.0
  0
LINE
  5
230
  8
DATA
  6
CONTINUOUS
 62
     7
 10
51.045157981712947
 20
39.101145656021572
 30
0.0
 11
52.545157981712947
 21
39.101145656021572
 31
0.0
  0
LINE
  5
231
  8
DATA
  6
CONTINUOUS
 62
     7
 10
51.706938086424998
 20
31.201145656021549
 30
0.0
 11
53.206938086424991
 21
31.201145656021549
 31
0.0
  0
LINE
  5
232
  8
DATA
  6
CONTINUOUS
 62
     7
 10
52.5661003900899
 20
38.851145656021572
 30
0.0
 11
53.066100390089922
 21
38.851145656021572
 31
0.0
  0
LINE
  5
233
  8
DATA
  6
CONTINUOUS
 62
     7
 10
51.206938086424991
 20
31.201145656021549
 30
0.0
 11
50.545157981712933
 21
39.101145656021572
 31
0.0
  0
LINE
  5
234
  8
DATA
  6
CONTINUOUS
 62
     7
 10
49.706938086424977
 20
31.201145656021549
 30
0.0
 11
49.045157981712933
 21
39.101145656021572
 31
0.0
  0
LINE
  5
235
  8
DATA
  6
CONTINUOUS
 62
     7
 10
49.045157981712933
 20
39.101145656021572
 30
0.0
 11
50.545157981712933
 21
39.101145656021572
 31
0.0
  0
LINE
  5
236
  8
DATA
  6
CONTINUOUS
 62
     7
 10
49.706938086424977
 20
31.201145656021549
 30
0.0
 11
51.206938086424991
 21
31.201145656021549
 31
0.0
  0
LINE
  5
237
  8
DATA
  6
CONTINUOUS
 62
     7
 10
50.5661003900899
 20
38.851145656021572
 30
0.0
 11
51.0661003900899
 21
38.851145656021572
 31
0.0
  0
LINE
  5
238
  8
DATA
  6
CONTINUOUS
 62
     7
 10
49.206938086424977
 20
31.201145656021549
 30
0.0
 11
48.545157981712933
 21
39.101145656021572
 31
0.0
  0
LINE
  5
239
  8
DATA
  6
CONTINUOUS
 62
     7
 10
47.706938086424969
 20
31.201145656021549
 30
0.0
 11
47.045157981712919
 21
39.101145656021572
 31
0.0
  0
LINE
  5
23A
  8
DATA
  6
CONTINUOUS
 62
     7
 10
47.045157981712919
 20
39.101145656021572
 30
0.0
 11
48.545157981712933
 21
39.101145656021572
 31
0.0
  0
LINE
  5
23B
  8
DATA
  6
CONTINUOUS
 62
     7
 10
47.706938086424969
 20
31.201145656021549
 30
0.0
 11
49.206938086424977
 21
31.201145656021549
 31
0.0
  0
LINE
  5
23C
  8
DATA
  6
CONTINUOUS
 62
     7
 10
48.566100390089893
 20
38.851145656021572
 30
0.0
 11
49.066100390089893
 21
38.851145656021572
 31
0.0
  0
LINE
  5
23D
  8
DATA
  6
CONTINUOUS
 62
     7
 10
47.206938086424962
 20
31.201145656021549
 30
0.0
 11
46.545157981712919
 21
39.101145656021572
 31
0.0
  0
LINE
  5
23E
  8
DATA
  6
CONTINUOUS
 62
     7
 10
45.706938086424969
 20
31.201145656021549
 30
0.0
 11
45.045157981712933
 21
39.101145656021572
 31
0.0
  0
LINE
  5
23F
  8
DATA
  6
CONTINUOUS
 62
     7
 10
45.045157981712933
 20
39.101145656021572
 30
0.0
 11
46.545157981712919
 21
39.101145656021572
 31
0.0
  0
LINE
  5
240
  8
DATA
  6
CONTINUOUS
 62
     7
 10
45.706938086424969
 20
31.201145656021549
 30
0.0
 11
47.206938086424962
 21
31.201145656021549
 31
0.0
  0
LINE
  5
241
  8
DATA
  6
CONTINUOUS
 62
     7
 10
46.566100390089893
 20
38.851145656021572
 30
0.0
 11
47.066100390089893
 21
38.851145656021572
 31
0.0
  0
LINE
  5
242
  8
DATA
  6
CONTINUOUS
 62
     7
 10
45.206938086424969
 20
31.201145656021549
 30
0.0
 11
44.545157981712919
 21
39.101145656021572
 31
0.0
  0
LINE
  5
243
  8
DATA
  6
CONTINUOUS
 62
     7
 10
43.706938086424969
 20
31.201145656021549
 30
0.0
 11
43.045157981712919
 21
39.101145656021572
 31
0.0
  0
LINE
  5
244
  8
DATA
  6
CONTINUOUS
 62
     7
 10
43.045157981712919
 20
39.101145656021572
 30
0.0
 11
44.545157981712919
 21
39.101145656021572
 31
0.0
  0
LINE
  5
245
  8
DATA
  6
CONTINUOUS
 62
     7
 10
43.706938086424969
 20
31.201145656021549
 30
0.0
 11
45.206938086424969
 21
31.201145656021549
 31
0.0
  0
LINE
  5
246
  8
DATA
  6
CONTINUOUS
 62
     7
 10
44.566100390089858
 20
38.851145656021572
 30
0.0
 11
45.066100390089858
 21
38.851145656021572
 31
0.0
  0
LINE
  5
247
  8
DATA
  6
CONTINUOUS
 62
     7
 10
43.206938086424969
 20
31.201145656021549
 30
0.0
 11
42.545157981712933
 21
39.101145656021572
 31
0.0
  0
LINE
  5
248
  8
DATA
  6
CONTINUOUS
 62
     7
 10
42.566100390089872
 20
38.851145656021572
 30
0.0
 11
43.066100390089858
 21
38.851145656021572
 31
0.0
  0
LINE
  5
249
  8
DATA
  6
CONTINUOUS
 62
     7
 10
51.185995678048009
 20
31.451145656021549
 30
0.0
 11
51.68599567804803
 21
31.451145656021549
 31
0.0
  0
LINE
  5
24A
  8
DATA
  6
CONTINUOUS
 62
     7
 10
49.185995678048009
 20
31.451145656021549
 30
0.0
 11
49.685995678048009
 21
31.451145656021549
 31
0.0
  0
LINE
  5
24B
  8
DATA
  6
CONTINUOUS
 62
     7
 10
47.185995678048002
 20
31.451145656021549
 30
0.0
 11
47.685995678048002
 21
31.451145656021549
 31
0.0
  0
LINE
  5
24C
  8
DATA
  6
CONTINUOUS
 62
     7
 10
45.185995678048002
 20
31.451145656021549
 30
0.0
 11
45.685995678048002
 21
31.451145656021549
 31
0.0
  0
LINE
  5
24D
  8
DATA
  6
CONTINUOUS
 62
     7
 10
43.185995678048002
 20
31.451145656021549
 30
0.0
 11
43.685995678048002
 21
31.451145656021549
 31
0.0
  0
LINE
  5
24E
  8
DATA
  6
CONTINUOUS
 62
     7
 10
43.206938086424991
 20
31.201145656021549
 30
0.0
 11
42.545157981712947
 21
39.101145656021572
 31
0.0
  0
LINE
  5
24F
  8
DATA
  6
CONTINUOUS
 62
     7
 10
41.706938086424991
 20
31.201145656021549
 30
0.0
 11
41.045157981712947
 21
39.101145656021572
 31
0.0
  0
LINE
  5
250
  8
DATA
  6
CONTINUOUS
 62
     7
 10
41.045157981712947
 20
39.101145656021572
 30
0.0
 11
42.545157981712947
 21
39.101145656021572
 31
0.0
  0
LINE
  5
251
  8
DATA
  6
CONTINUOUS
 62
     7
 10
41.706938086424991
 20
31.201145656021549
 30
0.0
 11
43.206938086424991
 21
31.201145656021549
 31
0.0
  0
LINE
  5
252
  8
DATA
  6
CONTINUOUS
 62
     7
 10
42.5661003900899
 20
38.851145656021572
 30
0.0
 11
43.066100390089922
 21
38.851145656021572
 31
0.0
  0
LINE
  5
253
  8
DATA
  6
CONTINUOUS
 62
     7
 10
37.045157981712933
 20
39.101145656021572
 30
0.0
 11
38.545157981712933
 21
39.101145656021572
 31
0.0
  0
LINE
  5
254
  8
DATA
  6
CONTINUOUS
 62
     7
 10
35.549999999999997
 20
39.101145656021572
 30
0.0
 11
37.045157981712933
 21
39.101145656021572
 31
0.0
  0
LINE
  5
255
  8
DATA
  6
CONTINUOUS
 62
     7
 10
33.455601624357797
 20
23.500469246019499
 30
0.0
 11
25.550000000000001
 21
22.83821989528797
 31
0.0
  0
LINE
  5
256
  8
DATA
  6
CONTINUOUS
 62
     7
 10
25.550000000000001
 20
22.83821989528797
 30
0.0
 11
25.550000000000001
 21
24.33821989528797
 31
0.0
  0
LINE
  5
257
  8
DATA
  6
CONTINUOUS
 62
     7
 10
33.45000000000001
 20
23.000000000000011
 30
0.0
 11
25.550000000000001
 21
22.33821989528797
 31
0.0
  0
LINE
  5
258
  8
DATA
  6
CONTINUOUS
 62
     7
 10
33.45000000000001
 20
21.500000000000011
 30
0.0
 11
25.550000000000001
 21
20.83821989528797
 31
0.0
  0
LINE
  5
259
  8
DATA
  6
CONTINUOUS
 62
     7
 10
25.550000000000001
 20
20.83821989528797
 30
0.0
 11
25.550000000000001
 21
22.33821989528797
 31
0.0
  0
LINE
  5
25A
  8
DATA
  6
CONTINUOUS
 62
     7
 10
33.45000000000001
 20
21.500000000000011
 30
0.0
 11
33.45000000000001
 21
23.000000000000011
 31
0.0
  0
LINE
  5
25B
  8
DATA
  6
CONTINUOUS
 62
     7
 10
25.800000000000001
 20
22.359162303664931
 30
0.0
 11
25.800000000000001
 21
22.859162303664931
 31
0.0
  0
LINE
  5
25C
  8
DATA
  6
CONTINUOUS
 62
     7
 10
25.800000000000001
 20
20.35916230366492
 30
0.0
 11
25.800000000000001
 21
20.859162303664931
 31
0.0
  0
LINE
  5
25D
  8
DATA
  6
CONTINUOUS
 62
     7
 10
33.200000000000003
 20
22.97905759162305
 30
0.0
 11
33.200000000000003
 21
23.47905759162305
 31
0.0
  0
LINE
  5
25E
  8
DATA
  6
CONTINUOUS
 62
     7
 10
33.200000000000003
 20
20.97905759162305
 30
0.0
 11
33.200000000000003
 21
21.47905759162305
 31
0.0
  0
LINE
  5
25F
  8
DATA
  6
CONTINUOUS
 62
     7
 10
41.706938086424991
 20
31.201145656021549
 30
0.0
 11
41.450000000000003
 21
31.201145656021549
 31
0.0
  0
ARC
  5
260
  8
DATA
  6
CONTINUOUS
 62
     7
 10
41.450000000000003
 20
23.201145656021549
 30
0.0
 40
8.0
 50
90.0
 51
153.51022342846341
  0
LINE
  5
261
  8
DATA
  6
CONTINUOUS
 62
     7
 10
25.550000000000001
 20
24.33821989528797
 30
0.0
 11
25.550000000000001
 21
29.101145656021561
 31
0.0
  0
LINE
  5
262
  8
DATA
  6
CONTINUOUS
 62
     7
 10
38.545157981712933
 20
39.101145656021572
 30
0.0
 11
41.045157981712947
 21
39.101145656021572
 31
0.0
  0
LINE
  5
263
  8
DATA
  6
CONTINUOUS
 62
     7
 10
33.45000000000001
 20
25.000000000000011
 30
0.0
 11
25.550000000000001
 21
24.33821989528797
 31
0.0
  0
LINE
  5
264
  8
DATA
  6
CONTINUOUS
 62
     7
 10
33.45000000000001
 20
23.500000000000011
 30
0.0
 11
25.550000000000001
 21
22.83821989528797
 31
0.0
  0
LINE
  5
265
  8
DATA
  6
CONTINUOUS
 62
     7
 10
33.45000000000001
 20
23.500000000000011
 30
0.0
 11
33.45000000000001
 21
25.000000000000011
 31
0.0
  0
ARC
  5
266
  8
DATA
  6
CONTINUOUS
 62
     7
 10
43.655000000000243
 20
21.224999999999859
 30
0.0
 40
10.883301429254191
 50
149.3730878716139
 51
159.81674025622669
  0
ENDSEC
  0
EOF
